Weezer - Waiting On You tab

It's extremely simple! Have fun!
-Deanna

INTRO:
2x
Ohhh
e|------------------------------------------------------------|
B|----7-11---9-7-6-6-7-----7----------------------------------|
G|---------------------6-9------------------------------------|
D|------------------------------------------------------------|
A|------------------------------------------------------------|
E|------------------------------------------------------------|


VERSE:
Why haven't you called me? Did you forget me? I need to know
e|------------------------------------------------------------|
B|------------------------------------------------------------|
G|------------------------------------------------------------|
D|--999999-888888-666666-444444-666666-888888-999999----------|
A|--999999-888888-666666-444444-666666-888888-999999----------|
E|--777777-666666-444444-222222-444444-666666-777777----------|
When were you intending to break the silence and let me know?
e|------------------------------------------------------------|
B|------------------------------------------------------------|
G|------------------------------------------------------------|
D|--999999-888888-666666-444444-666666-888888-999999----------|
A|--999999-888888-666666-444444-666666-888888-999999----------|
E|--777777-666666-444444-222222-444444-666666-777777----------|


CHORUS:
(Riff One) 3x
Mine is the loneliest of numbers. Ohh. Now is the loneliest of times. Oh yeah! You're 19 
days late, but still I sit and wait. Oh.
e|------------------------------------------------------------|
B|------------------------------------------------------------|
G|---------------666666---------------------------------------|
D|-------999999--666666--444444--x--888888--------------------|
A|-------999999--444444--444444--x--888888--------------------|
E|-------777777----------222222--x--666666--------------------|
(Riff Two) 2x
Waiting and waiting Waiting and waiting Waiting and waiting Waiting on you
e|------------------------------------------------------------|
B|------------------------------------------------------------|
G|------------------------------------------------------------|
D|-------444444-666666--444444--666666------------------------|
A|-------444444-666666--444444--666666------------------------|
E|-------222222-444444--222222--444444------------------------|


BRIDGE:
2x
Ohhh
e|------------------------------------------------------------|
B|----7-11---9-7-6-6-7-----7----------------------------------|
G|---------------------6-9------------------------------------|
D|------------------------------------------------------------|
A|------------------------------------------------------------|
E|------------------------------------------------------------|


VERSE 2:
Who have you been seeing that made you forget me? I bet you call him.
e|------------------------------------------------------------|
B|------------------------------------------------------------|
G|------------------------------------------------------------|
D|--999999-888888-666666-444444-666666-888888-999999----------|
A|--999999-888888-666666-444444-666666-888888-999999----------|
E|--777777-666666-444444-222222-444444-666666-777777----------|
Where, oh where does he come from? I bet he lives close by. I bet he's just a friend. Ohh!
e|------------------------------------------------------------|
B|------------------------------------------------------------|
G|------------------------------------------------------------|
D|--999999-888888-666666-444444-666666-888888-999999----------|
A|--999999-888888-666666-444444-666666-888888-999999----------|
E|--777777-666666-444444-222222-444444-666666-777777----------|


CHORUS:
(Riff One) 3x
Mine is the loneliest of numbers. Ohh. Now is the loneliest of times. Oh yeah! You're 19 
days late, but still I sit and wait. Oh.
e|------------------------------------------------------------|
B|------------------------------------------------------------|
G|---------------666666---------------------------------------|
D|-------999999--666666--444444--x--888888--------------------|
A|-------999999--444444--444444--x--888888--------------------|
E|-------777777----------222222--x--666666--------------------|
(Riff Two) 2x
Waiting and waiting Waiting and waiting Waiting and waiting Waiting on you
e|------------------------------------------------------------|
B|------------------------------------------------------------|
G|------------------------------------------------------------|
D|-------444444-666666--444444--666666------------------------|
A|-------444444-666666--444444--666666------------------------|
E|-------222222-444444--222222--444444------------------------|


OUTRO:
(Riff One) 2x
I asked you if you'd ever do me harm.
e|------------------------------------------------------------|
B|----7-11---9-7-6-6-7-----7----------------------------------|
G|---------------------6-9------------------------------------|
D|------------------------------------------------------------|
A|------------------------------------------------------------|
E|------------------------------------------------------------|
You answered, "Yes, I'll never do you harm"
e|------------------------------------------------------------|
B|----7-11---9-7-6-6-7-----7----------------------------------|
G|---------------------6-9------------------------------------|
D|------------------------------------------------------------|
A|------------------------------------------------------------|
E|------------------------------------------------------------|
(Riff Two)2x
You said...
e|------------------------------------------------------------|
B|------------------------------------------------------------|
G|------------------------------------------------------------|
D|-------444444-999999--444444--999999------------------------|
A|-------444444-999999--444444--999999------------------------|
E|-------222222-777777--222222--777777------------------------|
Tap to rate this tab
 
# A B C D E F G H I J K L M N O P Q R S T U V W X Y Z