Guitaretab - guitar tabs
Song name
# A B C D E F G H I J K L M N O P Q R S T U V W X Y Z

Weezer - Only In Dreams tab

-------------------------------------------------------------------------------
			     Only in Dreams - Weezer
-------------------------------------------------------------------------------

Tabbed by: cjpm105

Tuning: Guitar 1 - Standard, half step down.
        Guitar 2 - Standard, half step down.
        Guitar 3 - Standard, half step down.

Key
b  bend
r  release
v  vibrate
~  sustain
*  harmonic

        Thereís probably 4 or 5 guitars layered on this song, but itís 
easier to put it into two main guitar parts. During the intro and the
 verses, Guitar 1 is acoustic and Guitar 2 is clean. During the choruses,
 both guitars play the same parts and are distorted. For the solo, the two 
guitar parts are tabbed separately, so Guitar 1ís part (which is panned 
left) is tabbed and under that is Guitar 2ís part. During the outro, Guitar 
3 plays the bridge riff 7 times and ends on a A#5. After the outro, Guitar 1
 plays intro/verse riff and then fades out.  

Intro/ Verse 
eb|--3--3--3--3--3--3--3--3--------------0--0--0--0--3--3--3--3--3--3--3--3--------------0--0--0--0-|
Bb|--3--3--3--3--3--3--3--3--3--3--3--3--1--0--1--0--3--3--3--3--3--3--3--3--3--3--3--3--1--0--1--0-|
Gb|--0--0--0--0--0--0--0--0--2--2--2--2--0--0--0--0--0--0--0--0--0--0--0--0--2--2--2--2--0--0--0--0-|
Db|--0--0--0--0--2--2--2--2--2--2--2--2--2--2--2--2--0--0--0--0--2--2--2--2--2--2--2--2--2--2--2--2-|
Ab|--2--2--2--2--3--3--3--3--0--0--0--0--3--3--3--3--2--2--2--2--3--3--3--3--0--0--0--0--3--3--3--3-|
Eb|--3--3--3--3--------------------------------------3--3--3--3-------------------------------------|
*****************************************************************************************************
eb|-------------------------------------------------------------------------------------------------|
Bb|-------------------------------------------------------------------------------------------------|
Gb|---------------------------------------------------------------------------------------------12*-|
Db|------------------------------------------------------------------------------------------12*----|
Ab|---------------------------------------------------------------------------------------12*-------|
Eb|------------------------------------------------------------------------------------12*----------|

eb|--3--3--3--3--3--3--3--3--------------0--0--0--0--3--3--3--3--3--3--3--3--------------0--0--0--0-|
Bb|--3--3--3--3--3--3--3--3--3--3--3--3--1--0--1--0--3--3--3--3--3--3--3--3--3--3--3--3--1--0--1--0-|
Gb|--0--0--0--0--0--0--0--0--2--2--2--2--0--0--0--0--0--0--0--0--0--0--0--0--2--2--2--2--0--0--0--0-|
Db|--0--0--0--0--2--2--2--2--2--2--2--2--2--2--2--2--0--0--0--0--2--2--2--2--2--2--2--2--2--2--2--2-|
Ab|--2--2--2--2--3--3--3--3--0--0--0--0--3--3--3--3--2--2--2--2--3--3--3--3--0--0--0--0--3--3--3--3-|
Eb|--3--3--3--3--------------------------------------3--3--3--3-------------------------------------|
*****************************************************************************************************
eb|-------------------------------------------------------------------------------------------------|
Bb|-----------------------------------------0-----0-----------------------------------------0-----0-|
Gb|-------0------0-----0------0-------0--------------0-----0------0-----0------0-------0------------|
Db|----0------------1------------6b7-----10----10-------0------------1------------6b7-----8-----8---|
Ab|-------------------------------------------------------------------------------------------------|
Eb|-------------------------------------------------------------------------------------------------|

eb|--3--3--3--3--3--3--3--3--------------0--0--0--0--3--3--3--3--3--3--3--3--------------0--0--0--0-|
Bb|--3--3--3--3--3--3--3--3--3--3--3--3--1--0--1--0--3--3--3--3--3--3--3--3--3--3--3--3--1--0--1--0-|
Gb|--0--0--0--0--0--0--0--0--2--2--2--2--0--0--0--0--0--0--0--0--0--0--0--0--2--2--2--2--0--0--0--0-|
Db|--0--0--0--0--2--2--2--2--2--2--2--2--2--2--2--2--0--0--0--0--2--2--2--2--2--2--2--2--2--2--2--2-|
Ab|--2--2--2--2--3--3--3--3--0--0--0--0--3--3--3--3--2--2--2--2--3--3--3--3--0--0--0--0--3--3--3--3-|
Eb|--3--3--3--3--------------------------------------3--3--3--3-------------------------------------|
*****************************************************************************************************
eb|-------------------------------------------------------------------------------------------------|
Bb|-----------------------------------------0-----0-----------------------------------------0-----0-|
Gb|-0-----0------0-----0------0-------0--------------0-----0------0-----0------0-------0------------|
Db|----0------------1------------6b7-----10----10-------0------------1------------6b7-----8-----8---|
Ab|-------------------------------------------------------------------------------------------------|
Eb|-------------------------------------------------------------------------------------------------|

eb|--3--3--3--3--3--3--3--3--------------0--0--0--0--3--3--3--3--3--3--3--3--------------0--0--0--0-|
Bb|--3--3--3--3--3--3--3--3--3--3--3--3--1--0--1--0--3--3--3--3--3--3--3--3--3--3--3--3--1--0--1--0-|
Gb|--0--0--0--0--0--0--0--0--2--2--2--2--0--0--0--0--0--0--0--0--0--0--0--0--2--2--2--2--0--0--0--0-|
Db|--0--0--0--0--2--2--2--2--2--2--2--2--2--2--2--2--0--0--0--0--2--2--2--2--2--2--2--2--2--2--2--2-|
Ab|--2--2--2--2--3--3--3--3--0--0--0--0--3--3--3--3--2--2--2--2--3--3--3--3--0--0--0--0--3--3--3--3-|
Eb|--3--3--3--3--------------------------------------3--3--3--3-------------------------------------|

eb|--3--3--3--3--3--3--3--3--------------0--0--0--0--3--3--3--3--3--3--3--3--------------0--0--0--0-|
Bb|--3--3--3--3--3--3--3--3--3--3--3--3--1--0--1--0--3--3--3--3--3--3--3--3--3--3--3--3--1--0--1--0-|
Gb|--0--0--0--0--0--0--0--0--2--2--2--2--0--0--0--0--0--0--0--0--0--0--0--0--2--2--2--2--0--0--0--0-|
Db|--0--0--0--0--2--2--2--2--2--2--2--2--2--2--2--2--0--0--0--0--2--2--2--2--2--2--2--2--2--2--2--2-|
Ab|--2--2--2--2--3--3--3--3--0--0--0--0--3--3--3--3--2--2--2--2--3--3--3--3--0--0--0--0--3--3--3--3-|
Eb|--3--3--3--3--------------------------------------3--3--3--3-------------------------------------|
*****************************************************************************************************
eb|-------------------------------------------------------------------------------------------------|
Bb|-------------------------------------------------------------------------------------------------|
Gb|---------------------------------------------------------------------------------------------12*-|
Db|------------------------------------------------------------------------------------------12*----|
Ab|---------------------------------------------------------------------------------------12*-------|
Eb|------------------------------------------------------------------------------------12*----------|

eb|--3--3--3--3--3--3--3--3--------------0--0--0--0--3--3--3--3--3--3--3--3--------------0--0--0--0-|
Bb|--3--3--3--3--3--3--3--3--3--3--3--3--1--0--1--0--3--3--3--3--3--3--3--3--3--3--3--3--1--0--1--0-|
Gb|--0--0--0--0--0--0--0--0--2--2--2--2--0--0--0--0--0--0--0--0--0--0--0--0--2--2--2--2--0--0--0--0-|
Db|--0--0--0--0--2--2--2--2--2--2--2--2--2--2--2--2--0--0--0--0--2--2--2--2--2--2--2--2--2--2--2--2-|
Ab|--2--2--2--2--3--3--3--3--0--0--0--0--3--3--3--3--2--2--2--2--3--3--3--3--0--0--0--0--3--3--3--3-|
Eb|--3--3--3--3--------------------------------------3--3--3--3-------------------------------------|
*****************************************************************************************************
eb|-------------------------------------------------------------------------------------------------|
Bb|-----------------------------------------0-----0-----------------------------------------0-----0-|
Gb|-------0------0-----0------0-------0--------------0-----0------0-----0------0-------0------------|
Db|----0------------1------------6b7-----10----10-------0------------1------------6b7-----8-----8---|
Ab|-------------------------------------------------------------------------------------------------|
Eb|-------------------------------------------------------------------------------------------------|

eb|--3--3--3--3--3--3--3--3--------------0--0--0--0--3--3--3--3--3--3--3--3--------------0--0--0--0-|
Bb|--3--3--3--3--3--3--3--3--3--3--3--3--1--0--1--0--3--3--3--3--3--3--3--3--3--3--3--3--1--0--1--0-|
Gb|--0--0--0--0--0--0--0--0--2--2--2--2--0--0--0--0--0--0--0--0--0--0--0--0--2--2--2--2--0--0--0--0-|
Db|--0--0--0--0--2--2--2--2--2--2--2--2--2--2--2--2--0--0--0--0--2--2--2--2--2--2--2--2--2--2--2--2-|
Ab|--2--2--2--2--3--3--3--3--0--0--0--0--3--3--3--3--2--2--2--2--3--3--3--3--0--0--0--0--3--3--3--3-|
Eb|--3--3--3--3--------------------------------------3--3--3--3-------------------------------------|
*****************************************************************************************************
eb|-------------------------------------------------------------------------------------------------|
Bb|-----------------------------------------0-----0-----------------------------------------0-----0-|
Gb|-0-----0------0-----0------0-------0--------------0-----0------0-----0------0-------0------------|
Db|----0------------1------------6b7-----10----10-------0------------1------------6b7-----8-----8---|
Ab|-------------------------------------------------------------------------------------------------|
Eb|-------------------------------------------------------------------------------------------------|

Chorus (Both guitars distorted)
eb|-------------------------------------------------------------------------------------------------|
Bb|-------------------------------------------------------------------------------------------------|
Gb|--4--4--2-----------------5--5--4--2--2--2--2--2--4--4--2-----------------5--5--4--2--2--2--2--2-|
Db|--4--4--2--5--5--5--5--5--5--5--4--2--2--2--2--2--4--4--2--5--5--5--5--5--5--5--4--2--2--2--2--2-|
Ab|--2--2--0--5--5--5--5--5--3--3--2--0--0--0--0--0--2--2--0--5--5--5--5--5--3--3--2--0--0--0--0--0-|
Eb|-----------3--3--3--3--3-----------------------------------3--3--3--3--3-------------------------|

eb|---------------------------------------------------------------------------------------|
Bb|---------------------------------------------------------------------------------------|
Gb|-----------3--3--3--3--3-----------5--5--5--5--5--4--4--2-----------------5--5--6--7~--|
Db|--3--3--3--3--3--3--3--3--5--5--5--5--5--5--5--5--4--4--2--5--5--5--5--5--5--5--6--7~--|
Ab|--3--3--3--1--1--1--1--1--5--5--5--3--3--3--3--3--2--2--0--5--5--5--5--5--3--3--4--5~--|
Eb|--1--1--1--1--1--1--1--1--3--3--3--3--3--3--3--3-----------3--3--3--3--3--3--3--4--5~--|

Second Verse
eb|--3--3--3--3--3--3--3--3--------------0--0--0--0--3--|
Bb|--3--3--3--3--3--3--3--3--3--3--3--3--1--0--1--0--3--|
Gb|--0--0--0--0--0--0--0--0--2--2--2--2--0--0--0--0--0--|
Db|--0--0--0--0--2--2--2--2--2--2--2--2--2--2--2--2--0--|
Ab|--2--2--2--2--3--3--3--3--0--0--0--0--3--3--3--3--2--|
Eb|--3--3--3--3--------------------------------------3--|
*********************************************************
eb|-----------------------------------------------------|
Bb|-----------------------------------------------------|
Gb|-----------------------------------------------12*---|
Db|--------------------------------------------12*------|
Ab|-----------------------------------------12*---------|
Eb|--------------------------------------12*------------|

2:39
eb|--------------------------------------------------------------|
Bb|--------------------------------------------------------------|
Gb|--------------------------------------------------------------|
Db|--------------------------------------------------------------|
Ab|--------------------------------------------------------------|
Eb|--------------------------------------------------------------|
******************************************************************
eb|--------------------------------------------------------------|
Bb|--------------------------------------------------------------|
Gb|----------------------------------------------------------12*-|
Db|-----------------------------------------------------12*------|
Ab|--------------------------------------------------12*---------|
Eb|-----------------------------------------------12*------------|

eb|--3--3--3--3--3--3--3--3--------------0--0--0--0--3--3--3--3--3--3--3--3--------------0--0--0--0-|
Bb|--3--3--3--3--3--3--3--3--3--3--3--3--1--0--1--0--3--3--3--3--3--3--3--3--3--3--3--3--1--0--1--0-|
Gb|--0--0--0--0--0--0--0--0--2--2--2--2--0--0--0--0--0--0--0--0--0--0--0--0--2--2--2--2--0--0--0--0-|
Db|--0--0--0--0--2--2--2--2--2--2--2--2--2--2--2--2--0--0--0--0--2--2--2--2--2--2--2--2--2--2--2--2-|
Ab|--2--2--2--2--3--3--3--3--0--0--0--0--3--3--3--3--2--2--2--2--3--3--3--3--0--0--0--0--3--3--3--3-|
Eb|--3--3--3--3--------------------------------------3--3--3--3-------------------------------------|
*****************************************************************************************************
eb|-------------------------------------------------------------------------------------------------|
Bb|-----------------------------------------0-----0-----------------------------------------0-----0-|
Gb|-------0------0-----0------0-------0--------------0-----0------0-----0------0-------0------------|
Db|----0------------1------------6b7-----10----10-------0------------1------------6b7-----8-----8---|
Ab|-------------------------------------------------------------------------------------------------|
Eb|-------------------------------------------------------------------------------------------------|

eb|--3--3--3--3--3--3--3--3--------------0--0--0--0--3--3--3--3--3--3--3--3--------------0--0--0--0-|
Bb|--3--3--3--3--3--3--3--3--3--3--3--3--1--0--1--0--3--3--3--3--3--3--3--3--3--3--3--3--1--0--1--0-|
Gb|--0--0--0--0--0--0--0--0--2--2--2--2--0--0--0--0--0--0--0--0--0--0--0--0--2--2--2--2--0--0--0--0-|
Db|--0--0--0--0--2--2--2--2--2--2--2--2--2--2--2--2--0--0--0--0--2--2--2--2--2--2--2--2--2--2--2--2-|
Ab|--2--2--2--2--3--3--3--3--0--0--0--0--3--3--3--3--2--2--2--2--3--3--3--3--0--0--0--0--3--3--3--3-|
Eb|--3--3--3--3--------------------------------------3--3--3--3-------------------------------------|
*****************************************************************************************************
eb|-------------------------------------------------------------------------------------------------|
Bb|-----------------------------------------0-----0-----------------------------------------0-----0-|
Gb|-0-----0------0-----0------0-------0--------------0-----0------0-----0------0-------0------------|
Db|----0------------1------------6b7-----10----10-------0------------1------------6b7-----8-----8---|
Ab|-------------------------------------------------------------------------------------------------|
Eb|-------------------------------------------------------------------------------------------------|

Second Chorus
eb|-------------------------------------------------------------------------------------------------|
Bb|-------------------------------------------------------------------------------------------------|
Gb|--4--4--2-----------------5--5--4--2--2--2--2--2--4--4--2-----------------5--5--4--2--2--2--2--2-|
Db|--4--4--2--5--5--5--5--5--5--5--4--2--2--2--2--2--4--4--2--5--5--5--5--5--5--5--4--2--2--2--2--2-|
Ab|--2--2--0--5--5--5--5--5--3--3--2--0--0--0--0--0--2--2--0--5--5--5--5--5--3--3--2--0--0--0--0--0-|
Eb|-----------3--3--3--3--3-----------------------------------3--3--3--3--3-------------------------|

eb|---------------------------------------------------------------------------------------|
Bb|---------------------------------------------------------------------------------------|
Gb|-----------3--3--3--3--3-----------5--5--5--5--5--4--4--2-----------------5--5--6--7~--|
Db|--3--3--3--3--3--3--3--3--5--5--5--5--5--5--5--5--4--4--2--5--5--5--5--5--5--5--6--7~--|
Ab|--3--3--3--1--1--1--1--1--5--5--5--3--3--3--3--3--2--2--0--5--5--5--5--5--3--3--4--5~--|
Eb|--1--1--1--1--1--1--1--1--3--3--3--3--3--3--3--3-----------3--3--3--3--3--3--3--4--5~--|

Bridge (Both guitars distorted)
eb|-------------------------------------------------------------------------------------------------|
Bb|-------------------------------------------------------------------------------------------------|
Gb|--4--4--4--9--9--9--9--9--------------7--7--5--5--4--4--4--9--9--9--9--9--------------7--7--5--5-|
Db|--x--x--x--x--x--x--x--x--7--7--7--7--x--x--x--x--x--x--x--x--x--x--x--x--7--7--7--7--x--x--x--x-|
Ab|--2--2--2--7--7--7--7--7--x--x--x--x--5--5--3--3--2--2--2--7--7--7--7--7--x--x--x--x--5--5--3--3-|
Eb|--------------------------5--5--5--5--------------------------------------5--5--5--5-------------|

eb|-------------------------------------------------------------------------------------------------|
Bb|-------------------------------------------------------------------------------------------------|
Gb|--4--4--4--9--9--9--9--9--------------7--7--5--5--4--4--4--9--9--9--9--9--------------7--7--5--5-|
Db|--x--x--x--x--x--x--x--x--7--7--7--7--x--x--x--x--x--x--x--x--x--x--x--x--7--7--7--7--x--x--x--x-|
Ab|--2--2--2--7--7--7--7--7--x--x--x--x--5--5--3--3--2--2--2--7--7--7--7--7--x--x--x--x--5--5--3--3-|
Eb|--------------------------5--5--5--5--------------------------------------5--5--5--5-------------|

eb|-------------------------------------------------------------------------------------------------|
Bb|-------------------------------------------------------------------------------------------------|
Gb|--4--4--4--9--9--9--9--9--------------7--7--5--5--4--4--4--9--9--9--9--9--------------7--7--5--5-|
Db|--x--x--x--x--x--x--x--x--7--7--7--7--x--x--x--x--x--x--x--x--x--x--x--x--7--7--7--7--x--x--x--x-|
Ab|--2--2--2--7--7--7--7--7--x--x--x--x--5--5--3--3--2--2--2--7--7--7--7--7--x--x--x--x--5--5--3--3-|
Eb|--------------------------5--5--5--5--------------------------------------5--5--5--5-------------|
*****************************************************************************************************
eb|-------------------------------------------------------------------------------------------------|
Bb|--------------------------------------------------------------------------------------7--7--5--5-|
Gb|------------12-12-12-12--------------------------------------12-12-12-12--5--5--5--5--x--x--x--x-|
Db|-------------x--x--x--x---------------------------------------x--x--x--x--x--x--x--x--4--4--2--2-|
Ab|------------10-10-10-10--------------------------------------10-10-10-10--3--3--3--3-------------|
Eb|-------------------------------------------------------------------------------------------------|

eb|-------------------------------------------------------------------------------------------------|
Bb|-------------------------------------------------------------------------------------------------|
Gb|--4--4--4--9--9--9--9--9--------------7--7--5--5--4--4--4--9--9--9--9--9--------------7--7--5--5-|
Db|--x--x--x--x--x--x--x--x--7--7--7--7--x--x--x--x--x--x--x--x--x--x--x--x--7--7--7--7--x--x--x--x-|
Ab|--2--2--2--7--7--7--7--7--x--x--x--x--5--5--3--3--2--2--2--7--7--7--7--7--x--x--x--x--5--5--3--3-|
Eb|--------------------------5--5--5--5--------------------------------------5--5--5--5-------------|
*****************************************************************************************************
eb|-------------------------------------------------------------------------------------------------|
Bb|--------------------------------------------------------------------------------------7--7--5--5-|
Gb|------------12-12-12-12--------------------------------------12-12-12-12--5--5--5--5--x--x--x--x-|
Db|-------------x--x--x--x---------------------------------------x--x--x--x--x--x--x--x--4--4--2--2-|
Ab|------------10-10-10-10--------------------------------------10-10-10-10--3--3--3--3-------------|
Eb|-------------------------------------------------------------------------------------------------|
 

eb|--------------------------------------------------------------|
Bb|--------------------------------------------------------------|
Gb|--7~----------------------------------------------------------|
Db|--x-----------------------------------------------------------|
Ab|--5~----------------------------------------------------------|
Eb|--------------------------------------------------------------|

4:55 (Clean)
eb|---7-----7-------7------7------7------7------7-8-----8-----8----|
Bb|-----8------8-------8------8------8------8-------8-----8-----8--|
Gb|-7-----7------7-------7------7------7------7-------9-----9------|
Db|----------------------------------------------------------------|
Ab|----------------------------------------------------------------|
Eb|----------------------------------------------------------------|

eb|---7-----7-------7------7------7------7------7-8-----8-----8----|
Bb|-----8------8-------8------8------8------8-------8-----8-----8--|
Gb|-7-----7------7-------7------7------7------7-------9-----9------|
Db|----------------------------------------------------------------|
Ab|----------------------------------------------------------------|
Eb|----------------------------------------------------------------|

eb|---7-----7-------7------7------7------7------7-8-----8-----8----|
Bb|-----8------8-------8------8------8------8-------8-----8-----8--|
Gb|-7-----7------7-------7------7------7------7-------9-----9------|
Db|----------------------------------------------------------------|
Ab|----------------------------------------------------------------|
Eb|----------------------------------------------------------------|
********************************************************************
eb|----------------------------------------------------------------|
Bb|----------------------------------------------------------------|
Gb|-----------------------------------(9)----(11)--------(12)------|
Db|----------------------------------------------------------------|
Ab|----------------------------------------------------------------|
Eb|----------------------------------------------------------------|
[ Tab from: http://www.guitaretab.com/w/weezer/29288.html ]
eb|---7-----7-------7------7------7------7------7-8-----8-----8----|
Bb|-----8------8-------8------8------8------8-------8-----8-----8--|
Gb|-7-----7------7-------7------7------7------7-------9-----9------|
Db|----------------------------------------------------------------|
Ab|----------------------------------------------------------------|
Eb|----------------------------------------------------------------|

Solo/build-up
Guitar 1
5:19
eb|---------------------------------------------------------------------------------------|
Bb|---------------------------------------------------------------------------------------|
Gb|-11-11-11-11-11---11-11--11-11-11-11-11---11-11-11-12-12-12-12----12-12-12-12-12-12-12-|
Db|--x--x--x--x--x----x--x---x--x--x--x--x----x--x--x--x--x--x--x-----x--x--x--x--x--x--x-|
Ab|--9--9--9--9--9----9--9---9--9--9--9--9----9--9--9-10-10-10-10----10-10-10-10-10-10-10-|
Eb|---------------------------------------------------------------------------------------|

eb|---------------------------------------------------------------------------------------|
Bb|---------------------------------------------------------------------------------------|
Gb|-11-11-11-11-11---11-11--11-11-11-11-11---11-11-11-12-12-12-12----12-12-12-12-12-12-12-|
Db|--x--x--x--x--x----x--x---x--x--x--x--x----x--x--x--x--x--x--x-----x--x--x--x--x--x--x-|
Ab|--9--9--9--9--9----9--9---9--9--9--9--9----9--9--9-10-10-10-10----10-10-10-10-10-10-10-|
Eb|---------------------------------------------------------------------------------------|

eb|---------------------------------------------------------------------------------------|
Bb|---------------------------------------------------------------------------------------|
Gb|-11-11-11-11-11---11-11--11-11-11-11-11---11-11-11-12-12-12-12----12-12-12-14-14-14-14-|
Db|--x--x--x--x--x----x--x---x--x--x--x--x----x--x--x--x--x--x--x-----x--x--x--x--x--x--x-|
Ab|--9--9--9--9--9----9--9---9--9--9--9--9----9--9--9-10-10-10-10----10-10-10-12-12-12-12-|
Eb|---------------------------------------------------------------------------------------|

5:38
eb|------------------------------------------------------------------------------------|
Bb|------------------------------------------------------------------------------------|
Gb|-7-7-7-7-7--7-7-7-9-9-9-9--9-9-9-9-9-9-9-9-9-9--9-11-11-11-11--11-11-11-12-12-12-12-|
Db|-x-x-x-x-x--x-x-x-x-x-x-x--x-x-x-x-x-x-x-x-x-x--x--x--x--x--x---x--x--x--x--x--x--x-|
Ab|-5-5-5-5-5--5-5-5-7-7-7-7--7-7-7-7-7-7-7-7-7-7--7--9--9--9--9---9--9--9-10-10-10-10-|
Eb|------------------------------------------------------------------------------------|

eb|--------------------------------------------------------------------------------|
Bb|--------------------------------------------------------------------------------|
Gb|-12-12-12-12-12-12--12-12-12-14-14-14-14--14-14-14-14-14-14--14-14--16-16-16-16-|
Db|--x--x--x--x--x--x---x--x--x--x--x--x--x---x--x--x--x--x--x---x--x---x--x--x--x-|
Ab|-10-10-10-10-10-10--10-10-10-12-12-12-12--12-12-12-12-12-12--12-12--14-14-14-14-|
Eb|--------------------------------------------------------------------------------|

eb|-----------------------------------------------------------------------------------------------|
Bb|-----------------------------------------------------------------------------------------------|
Gb|-16-16-16-16-16-16-16-16--16-16-17-17-17-17--19-19-19-19--19-19-19-19-19-19--19-19-19-19-19-19-|
Db|--x--x--x--x--x--x--x--x---x--x--x--x--x--x---x--x--x--x---x--x--x--x--x--x---x--x--x--x--x--x-|
Ab|-14-14-14-14-14-14-14-14--14-14-15-15-15-15--17-17-17-17--17-17-17-17-17-17--17-17-17-17-17-17-|
Eb|-----------------------------------------------------------------------------------------------|

5:59
eb|-------------------------------------------------------------------------------------------------|
Bb|-------17-17-17-17--17-17-19-19-19-19--19-19-19-19-19--19-19-12-12-12-12--12-12-19-19-19-19-19-19|
Gb|-19-19--x--x--x--x---x--x--x--x--x--x---x--x--x--x--x---x--x--x--x--x--x---x--x--x--x--x--x--x--x|
Db|--x--x-14-14-14-14--14-14-16-16-16-16--16-16-16-16-16--16-16--9--9--9--9---9--9-16-16-16-16-16-16|
Ab|-17-17-------------------------------------------------------------------------------------------|
Eb|-------------------------------------------------------------------------------------------------|

eb|-------------------------------------------------------------------------------------------------|
Bb|-12-12-12-12-12-12-12-12-20-20-20-20-20-20-20-20-20-20-20-20-20-20-20-20-20-20-20-20-20-20-20-20-|
Gb|--x--x--x--x--x--x--x--x--x--x--x--x--x--x--x--x--x--x--x--x--x--x--x--x--x--x--x--x--x--x--x--x-|
Db|--9--9--9--9--9--9--9--9-17-17-17-17-17-17-17-17-17-17-17-17-17-17-17-17-17-17-17-17-17-17-17-17-|
Ab|-------------------------------------------------------------------------------------------------|
Eb|-------------------------------------------------------------------------------------------------|

6:14
eb|-------------------------------------------------------------------------------------------------|
Bb|-15-15-15-15-15-15-15-15-15-15-15-15-15-15-15-15-15-15-15-15-15-17-17-17-19-19-19-19-19-19-19-19-|
Gb|--x--x--x--x--x--x--x--x--x--x--x--x--x--x--x--x--x--x--x--x--x--x--x--x--x--x--x--x--x--x--x--x-|
Db|-12-12-12-12-12-12-12-12-12-12-12-12-12-12-12-12-12-12-12-12-12-14-14-14-16-16-16-16-16-16-16-16-|
Ab|-------------------------------------------------------------------------------------------------|
Eb|-------------------------------------------------------------------------------------------------|

eb|-------------------------|
Bb|-19-19-19-19-19-19-19-19-|
Gb|--x--x--x--x--x--x--x--x-|
Db|-16-16-16-16-16-16-16-16-|
Ab|-------------------------|
Eb|-------------------------|

eb|-x-14-14-14-14-15-15-15-15-14-14-14-14-15-15-15-15-17-17-17-17-15-15-15-15-14-14-14-14-|
Bb|-x--x--x--x--x--x--x--x--x--x--x--x--x--x--x--x--x--x--x--x--x--x--x--x--x--x--x--x--x-|
Gb|-x-11-11-11-11-12-12-12-12-11-11-11-11-12-12-12-12-14-14-14-14-12-12-12-12-11-11-11-11-|
Db|---------------------------------------------------------------------------------------|
Ab|---------------------------------------------------------------------------------------|
Eb|---------------------------------------------------------------------------------------|

eb|-15-15-15-15-17-17-17-17-15-15-15-15-15-15-15-15-15-15-15-15-17-17-17-17-17-17-17-17-|
Bb|--x--x--x--x--x--x--x--x--x--x--x--x--x--x--x--x--x--x--x--x--x--x--x--x--x--x--x--x-|
Gb|-12-12-12-12-14-14-14-14-12-12-12-12-12-12-12-12-12-12-12-12-14-14-14-14-14-14-14-14-|
Db|-------------------------------------------------------------------------------------|
Ab|-------------------------------------------------------------------------------------|
Eb|-------------------------------------------------------------------------------------|

eb|-17-17-17-17-17-17-17-17-19-19-19-19-19-19-19-19-19-19-19-19-19-19-19-19-|
Bb|--x--x--x--x--x--x--x--x--x--x--x--x--x--x--x--x--x--x--x--x--x--x--x--x-|
Gb|-14-14-14-14-14-14-14-14-16-16-16-16-16-16-16-16-16-16-16-16-16-16-16-16-|
Db|-------------------------------------------------------------------------|
Ab|-------------------------------------------------------------------------|
Eb|-------------------------------------------------------------------------|

6:34
eb|-20-20-20-20-20-20-20-20-22-22-22-22-22-22-22-22-22-22-22-22-22-22-22-22-22-22-22-22-22-22-22-22-|
Bb|--x--x--x--x--x--x--x--x--x--x--x--x--x--x--x--x--x--x--x--x--x--x--x--x--x--x--x--x--x--x--x--x-|
Gb|-17-17-17-17-17-17-17-17-19-19-19-19-19-19-19-19-19-19-19-19-19-19-19-19-19-19-19-19-19-19-19-19-|
Db|-------------------------------------------------------------------------------------------------|
Ab|-------------------------------------------------------------------------------------------------|
Eb|-------------------------------------------------------------------------------------------------|

eb|-22-22-22-22-22-22-22-22-22-22-22-22-22-22-22-22-|
Bb|--x--x--x--x--x--x--x--x--x--x--x--x--x--x--x--x-|
Gb|-19-19-19-19-19-19-19-19-19-19-19-19-19-19-19-19-|
Db|-------------------------------------------------|
Ab|-------------------------------------------------|
Eb|-------------------------------------------------|

6:46 - Outro
eb|-22-22-22-22-22-22-22-22-22-22-22-22-22-22-22-22--19-19-19-19-17-17-17-17-15-15-15-15-14-14-14-14|
Bb|--x--x--x--x--x--x--x--x--x--x--x--x--x--x--x--x---x--x--x--x--x--x--x--x--x--x--x--x--x--x--x--x|
Gb|-19-19-19-19-19-19-19-19-19-19-19-19-19-19-19-19--16-16-16-16-14-14-14-14-12-12-12-12-11-11-11-11|
Db|-------------------------------------------------------------------------------------------------|
Ab|-------------------------------------------------------------------------------------------------|
Eb|-------------------------------------------------------------------------------------------------|

eb|-15-15-15-15--15-15\22-22-22-22-22-22-22--19-19-19-19-17-17-17-17-15-15-15-15-14-14-14-14-|
Bb|--x--x--x--x---x--x--x--x--x--x--x--x--x---x--x--x--x--x--x--x--x--x--x--x--x--x--x--x--x-|
Gb|-12-12-12-12--12-12\19-19-19-19-19-19-19--16-16-16-16-14-14-14-14-12-12-12-12-11-11-11-11-|
Db|------------------------------------------------------------------------------------------|
Ab|------------------------------------------------------------------------------------------|
Eb|------------------------------------------------------------------------------------------|

eb|-15-15-15-15-14-14-14-14-10-10-10-10-10-10-14-14-15-15-15-15-17-17-17-17-19-19-19-19-|
Bb|--x--x--x--x--x--x--x--x--x--x--x--x--x--x--x--x--x--x--x--x--x--x--x--x--x--x--x--x-|
Gb|-12-12-12-12-11-11-11-11--7--7--7--7--7--7-11-11-12-12-12-12-14-14-14-14-16-16-16-16-|
Db|-------------------------------------------------------------------------------------|
Ab|-------------------------------------------------------------------------------------|
Eb|-------------------------------------------------------------------------------------|

eb|-17-17-17-17-15-15-15-15-15-15-15-15-15-15-15-15-15-15-15-15-18-18-18-18-19-19-19-19-19-19-19-19-|
Bb|--x--x--x--x--x--x--x--x--x--x--x--x--x--x--x--x--x--x--x--x--x--x--x--x--x--x--x--x--x--x--x--x-|
Gb|-14-14-14-14-12-12-12-12-12-12-12-12-12-12-12-12-12-12-12-12-15-15-15-15-15-15-15-15-15-15-15-15-|
Db|-------------------------------------------------------------------------------------------------|
Ab|-------------------------------------------------------------------------------------------------|
Eb|-------------------------------------------------------------------------------------------------|

eb|-15--14v--12----------------------15--14v--12---12-------------------|
Bb|--------------15--12-------------------------------15-12-------------|
Gb|---------------------15-14-12~---------------------------15-14-12----|
Db|---------------------------------------------------------------------|
Ab|---------------------------------------------------------------------|
Eb|---------------------------------------------------------------------|

eb|-17b19--17--15--14--12----------17b19--17--15--14--12----------------|
Bb|------------------------15-13-------------------------15-15----------|
Gb|---------------------------------------------------------------------|
Db|---------------------------------------------------------------------|
Ab|---------------------------------------------------------------------|
Eb|---------------------------------------------------------------------|

eb|-20b22v----20-19-20-19----------------------20b22--20----------------|
Bb|-----------------------20-20----19----17---------------17-17-17~-----|
Gb|---------------------------------------------------------------------|
Db|---------------------------------------------------------------------|
Ab|---------------------------------------------------------------------|
Eb|---------------------------------------------------------------------|



Guitar 2
5:45
eb|--7-7-7-7-7-7--7-7-7-7-7-7---8-8-8-8-8-8---10-10-10-10-10-10-10-10--10-10-10-10-10--|
Bb|--x-x-x-x-x-x--x-x-x-x-x-x---x-x-x-x-x-x----x--x--x--x--x--x--x--x---x--x--x--x--x--|
Gb|--4-4-4-4-4-4--4-4-4-4-4-4---5-5-5-5-5-5----7--7--7--7--7--7--7--7---7--7--7--7--7--| 
Db|------------------------------------------------------------------------------------|    
Ab|------------------------------------------------------------------------------------|
Eb|------------------------------------------------------------------------------------|

5:53
eb|--12-12-12-12-12-12-12-12-14-14-14-14-14-14-14-14--14-14-14-14-14--|
Bb|---x--x--x--x--x--x--x--x--x--x--x--x--x--x--x--x---x--x--x--x--x--|
Gb|---9--9--9--9--9--9--9--9-11-11-11-11-11-11-11-11--11-11-11-11-11--| 
Db|-------------------------------------------------------------------|    
Ab|-------------------------------------------------------------------|
Eb|-------------------------------------------------------------------|
                             6:01 
eb|-14-14-14-14-14-14-14-14--14-14-14-12-12-12-10-10-10-10-10-10-10-10|
Bb|--x--x--x--x--x--x--x--x---x--x--x--x--x--x--x--x--x--x--x--x--x--x|
Gb|-11-11-11-11-11-11-11-11--11-11-11--9--9--9--7--7--7--7--7--7--7--7| 
Db|-------------------------------------------------------------------|    
Ab|-------------------------------------------------------------------|
Eb|-------------------------------------------------------------------|
                                                       6:04
eb|--10-10-10-10-10-10-10--15-15-15-15-15-15-15-15--15-15-15-15-15--|
Bb|---x--x--x--x--x--x--x---x--x--x--x--x--x--x--x---x--x--x--x--x--|
Gb|---7--7--7--7--7--7--7--12-12-12-12-12-12-12-12--12-12-12-12-12--| 
Db|-----------------------------------------------------------------|    
Ab|-----------------------------------------------------------------|
Eb|-----------------------------------------------------------------|
                              
eb|--14-14-14-14-14-14-14-14--|
Bb|---x--x--x--x--x--x--x--x--|
Gb|--11-11-11-11-11-11-11-11--| 
Db|---------------------------|    
Ab|---------------------------|
Eb|---------------------------|

6:08
eb|--12-12-12-12-10-10-10-10-12-12-12-12-14-14-14-14--|
Bb|---x--x--x--x--x--x--x--x--x--x--x--x--x--x--x--x--|
Gb|---9--9--9--9--7--7--7--7--9--9--9--9-11-11-11-11--| 
Db|---------------------------------------------------|    
Ab|---------------------------------------------------|
Eb|---------------------------------------------------|

eb|--12-12-12-12-10-10-10-10-12-12-12-12-14-14-14-14--|
Bb|---x--x--x--x--x--x--x--x--x--x--x--x--x--x--x--x--|
Gb|---9--9--9--9--7--7--7--7--9--9--9--9-11-11-11-11--| 
Db|---------------------------------------------------|    
Ab|---------------------------------------------------|
Eb|---------------------------------------------------|

eb|--14-14-14-14-14-14-14-14-14-14-14-14-14-14-14-14-14-14-14-14--|
Bb|---x--x--x--x--x--x--x--x--x--x--x--x--x--x--x--x--x--x--x--x--|
Gb|--11-11-11-11-11-11-11-11-11-11-11-11-11-11-11-11-11-11-11-11--| 
Db|---------------------------------------------------------------|    
Ab|---------------------------------------------------------------|
Eb|---------------------------------------------------------------|

6:17
eb|--15-15-15-15-15-15-15-15-17-17-17-17-17-17-17-17--|
Bb|---x--x--x--x--x--x--x--x--x--x--x--x--x--x--x--x--|
Gb|--12-12-12-12-12-12-12-12-14-14-14-14-14-14-14-14--| 
Db|---------------------------------------------------|    
Ab|---------------------------------------------------|
Eb|---------------------------------------------------|

6:20
eb|--14-14-14-14-14-14-14-14-14-14-14-14-14-14-14-14--|
Bb|---x--x--x--x--x--x--x--x--x--x--x--x--x--x--x--x--|
Gb|--11-11-11-11-11-11-11-11-11-11-11-11-11-11-11-11--| 
Db|---------------------------------------------------|    
Ab|---------------------------------------------------|
Eb|---------------------------------------------------|

eb|--17-17-17-17-17-17-17-17-20-20-20-20-20-20-20-20--|
Bb|---x--x--x--x--x--x--x--x--x--x--x--x--x--x--x--x--|
Gb|--14-14-14-14-14-14-14-14-17-17-17-17-17-17-17-17--| 
Db|---------------------------------------------------|    
Ab|---------------------------------------------------|
Eb|---------------------------------------------------|

6:26
eb|-19-19-19-19-19-19-19-19-19-19-19-19-19-19-19-19-19-19-19-19-19-19-|
Bb|--x--x--x--x--x--x--x--x--x--x--x--x--x--x--x--x--x--x--x--x--x--x-|
Gb|-16-16-16-16-16-16-16-16-16-16-16-16-16-16-16-16-16-16-16-16-16-16-| 
Db|-------------------------------------------------------------------|    
Ab|-------------------------------------------------------------------|
Eb|-------------------------------------------------------------------|

eb|--19-19-19-19-20-20-20-20-22-22-22-22-22-22-22-22-22-22-22-22--|
Bb|---x--x--x--x--x--x--x--x--x--x--x--x--x--x--x--x--x--x--x--x--|
Gb|--16-16-16-16-17-17-17-17-19-19-19-19-19-19-19-19-19-19-19-19--| 
Db|---------------------------------------------------------------|    
Ab|---------------------------------------------------------------|
Eb|---------------------------------------------------------------|

eb|--15-15-15-15-17-17-19-19-20-20-20-20-20-20-20-20--|
Bb|---x--x--x--x--x--x--x--x--x--x--x--x--x--x--x--x--|
Gb|--12-12-12-12-14-14-16-16-17-17-17-17-17-17-17-17--| 
Db|---------------------------------------------------|    
Ab|---------------------------------------------------|
Eb|---------------------------------------------------|

6:37
eb|--14-14-14-14-14-14-14-14-15-15-15-15-15-15-15-15--|
Bb|---x--x--x--x--x--x--x--x--x--x--x--x--x--x--x--x--|
Gb|--11-11-11-11-11-11-11-11-12-12-12-12-12-12-12-12--| 
Db|---------------------------------------------------|    
Ab|---------------------------------------------------|
Eb|---------------------------------------------------|

eb|--20-20-20-20-19-19-17-17-20-20-20-20-19-19-17-17--|
Bb|---x--x--x--x--x--x--x--x--x--x--x--x--x--x--x--x--|
Gb|--17-17-17-17-16-16-14-14-17-17-17-17-16-16-14-14--| 
Db|---------------------------------------------------|    
Ab|---------------------------------------------------|
Eb|---------------------------------------------------|

                             6:46 - Outro
eb|--20-20-20-19-19-19-17-17-22-22-22-22-22-22-22-22--|
Bb|---x--x--x--x--x--x--x--x--x--x--x--x--x--x--x--x--|
Gb|--17-17-17-16-16-16-14-14-19-19-19-19-19-19-19-19--| 
Db|---------------------------------------------------|    
Ab|---------------------------------------------------|
Eb|---------------------------------------------------|

eb|-15-15-15-15-15-15-15-15-------------------------------------------------------------------------|
Bb|--x--x--x--x--x--x--x--x-13-13-13-13-13-13-13-13-19-19-19-19-17-17-17-17-15-15-15-15-15-15-15-15-|
Gb|-12-12-12-12-12-12-12-12--x--x--x--x--x--x--x--x--x--x--x--x--x--x--x--x--x--x--x--x--x--x--x--x-|
Db|-------------------------10-10-10-10-10-10-10-10-16-16-16-16-14-14-14-14-12-12-12-12-12-12-12-12-|
Ab|-------------------------------------------------------------------------------------------------|
Eb|-------------------------------------------------------------------------------------------------|

eb|-------------------------------------------------------------------------------------------------|
Bb|-20-20-20-20-20-20-20-20-13-13-13-13-13-13-13-13-19-19-19-19-17-17-17-17-15-15-15-15-15-15-15-15-|
Gb|--x--x--x--x--x--x--x--x--x--x--x--x--x--x--x--x--x--x--x--x--x--x--x--x--x--x--x--x--x--x--x--x-|
Db|-17-17-17-17-17-17-17-17-10-10-10-10-10-10-10-10-16-16-16-16-14-14-14-14-12-12-12-12-12-12-12-12-|
Ab|-------------------------------------------------------------------------------------------------|
Eb|-------------------------------------------------------------------------------------------------|

6:59
eb|-15-15-15-15-15-15-15-15-15-15-15-15-17-17-17-17-19-19-19-19-17-17-17-17-15-15-15-15-15-15-15-|
Bb|--x--x--x--x--x--x--x--x--x--x--x--x--x--x--x--x--x--x--x--x--x--x--x--x--x--x--x--x--x--x--x-|
Gb|-12-12-12-12-12-12-12-12-12-12-12-12-14-14-14-14-16-16-16-16-14-14-14-14-12-12-12-12-12-12-12-|
Db|----------------------------------------------------------------------------------------------|
Ab|----------------------------------------------------------------------------------------------|
Eb|----------------------------------------------------------------------------------------------|

eb|-18-18-18-18-18-18-18-x-19-19-19-19-19-19-19-19-19-19-19-19-19-19-19-19-|
Bb|--x--x--x--x--x--x--x-x--x--x--x--x--x--x--x--x--x--x--x--x--x--x--x--x-|
Gb|-15-15-15-15-15-15-15-x-16-16-16-16-16-16-16-16-16-16-16-16-16-16-16-16-|
Db|------------------------------------------------------------------------|
Ab|------------------------------------------------------------------------|
Eb|------------------------------------------------------------------------|

eb|-15-15-15-15-15-15-15-12-15-15-15-12-15-15-15-12-15-15-15-15-15-15-15-|
Bb|--x--x--x--x--x--x--x--x--x--x--x--x--x--x--x--x--x--x--x--x--x--x--x-|
Gb|-12-12-12-12-12-12-12--9-12-12-12--9-12-12-12--9-12-12-12-12-12-12-12-|
Db|----------------------------------------------------------------------|
Ab|----------------------------------------------------------------------|
Eb|----------------------------------------------------------------------|

7:14
eb|-19--19-17-17-15-15-12-15-15-15-15-15-15-15-15-15-15-15-15-15-15-15-15-15-15-15-15-15-15-15-15-|
Bb|--x---x--x--x--x--x--x--x--x--x--x--x--x--x--x--x--x--x--x--x--x--x--x--x--x--x--x--x--x--x--x-|
Gb|-16--16-14-14-12-12--9-12-12-12-12-12-12-12-12-12-12-12-12-12-12-12-12-12-12-12-12-12-12-12-12-|
Db|-----------------------------------------------------------------------------------------------|
Ab|-----------------------------------------------------------------------------------------------|
Eb|-----------------------------------------------------------------------------------------------|

eb|-19--19-17-17-15-15-12-15-15-15-15-15-15-15-15-15-15-15-15-15-15-15-15-12-15-15-15-15-15-15-15-|
Bb|--x---x--x--x--x--x--x--x--x--x--x--x--x--x--x--x--x--x--x--x--x--x--x--x--x--x--x--x--x--x--x-|
Gb|-16--16-14-14-12-12--9-12-12-12-12-12-12-12-12-12-12-12-12-12-12-12-12--9-12-12-12-12-12-12-12-|
Db|-----------------------------------------------------------------------------------------------|
Ab|-----------------------------------------------------------------------------------------------|
Eb|-----------------------------------------------------------------------------------------------|

eb|-20--20-19-19-17-17-15-15-17\-19~~~~----|
Bb|--x---x--x--x--x--x--x--x--x---x--------|
Gb|-17--17-16-16-14-14-12-12-14\-16~~~~----|
Db|----------------------------------------|
Ab|----------------------------------------|
Eb|----------------------------------------|


Related for Only In Dreams tab