Song name
# A B C D E F G H I J K L M N O P Q R S T U V W X Y Z

Weezer - Getchoo tab

-------------------------------------------------------------------------------
			     Getchoo - Weezer
-------------------------------------------------------------------------------

Tabbed by: cjpm105

Tuning: Guitar 1 - Standard, half step down.
        Guitar 2 - Standard, half step down. 

Key
/  slide up
\  slide down
h  hammer-on
p  pull-off
~  sustain
b  bend
r  release

Intro
eb|--------------------------------------------------------------------------------|
Bb|--------------------------------------------------------------------------------|
Gb|--------------------------------------------------------------------------------|
Db|--7----7----7----7----9----9----9----9----7----7----7----7----9----9----9----9--|
Ab|--7----7----7----7----7----7----7----7----7----7----7----7----7----7----7----7--|
Eb|--5----5----5----5----7----7----7----7----5----5----5----5----7----7----7----7--|
************************************************************************************
eb|--5----5----5----5---12---12---12---12----5----5----5----5---12---12---12---12--|
Bb|--x----x----x----x----x----x----x----x----x----x----x----x----x----x----x----x--|
Gb|--2----2----2----2----9----9----9----9----2----2----2----2----9----9----9----9--|
Db|--------------------------------------------------------------------------------|
Ab|--------------------------------------------------------------------------------|
Eb|--------------------------------------------------------------------------------|

Verse 
eb|-------------------------------------------------------------------------------------------------|
Bb|-------------------------------------------------------------------------------------------------|
Gb|-------------------------------------------------------------------------------------------------|
Db|-7--7--7--7--7--7--7--7--9--9--9--9--9--9--9--9--7--7--7--7--7--7--7--7--9--9--9--9--9--9--9--9--|
Ab|-7--7--7--7--7--7--7--7--7--7--7--7--7--7--7--7--7--7--7--7--7--7--7--7--7--7--7--7--7--7--7--7--|
Eb|-5--5--5--5--5--5--5--5--7--7--7--7--7--7--7--7--5--5--5--5--5--5--5--5--7--7--7--7--7--7--7--7--|

eb|-------------------------------------------------------------------------------------------------|
Bb|-------------------------------------------------------------------------------------------------|
Gb|-------------------------------------------------------------------------------------------------|
Db|-7--7--7--7--7--7--7--7--7--7--7--7--7--7--7--7--9--9--9--9--9--9--9--9--7--7--7--7--7--7--7--7--|
Ab|-7--7--7--7--7--7--7--7--5--5--5--5--5--5--5--5--7--7--7--7--7--7--7--7--7--7--7--7--7--7--7--7--|
Eb|-5--5--5--5--5--5--5--5--5--5--5--5--5--5--5--5--7--7--7--7--7--7--7--7--5--5--5--5--5--5--5--5--|

eb|--------------------------------------------------------------------------------|
Bb|--------------------------------------------------------------------------------|
Gb|--------------------------------------------------------------------------------|
Db|--7----7----7----7----9----9----9----9----7----7----7----7----9----9----9----9--|
Ab|--7----7----7----7----7----7----7----7----7----7----7----7----7----7----7----7--|
Eb|--5----5----5----5----7----7----7----7----5----5----5----5----7----7----7----7--|
************************************************************************************
eb|--5----5----5----5---12---12---12---12----5----5----5----5---12---12---12---12--|
Bb|--x----x----x----x----x----x----x----x----x----x----x----x----x----x----x----x--|
Gb|--2----2----2----2----9----9----9----9----2----2----2----2----9----9----9----9--|
Db|--------------------------------------------------------------------------------|
Ab|--------------------------------------------------------------------------------|
Eb|--------------------------------------------------------------------------------|

eb|-------------------------------------------------------------------------------------------------|
Bb|-------------------------------------------------------------------------------------------------|
Gb|-------------------------------------------------------------------------------------------------|
Db|-7--7--7--7--7--7--7--7--9--9--9--9--9--9--9--9--7--7--7--7--7--7--7--7--9--9--9--9--9--9--9--9--|
Ab|-7--7--7--7--7--7--7--7--7--7--7--7--7--7--7--7--7--7--7--7--7--7--7--7--7--7--7--7--7--7--7--7--|
Eb|-5--5--5--5--5--5--5--5--7--7--7--7--7--7--7--7--5--5--5--5--5--5--5--5--7--7--7--7--7--7--7--7--|

eb|-------------------------------------------------------------------------------------------------|
Bb|-------------------------------------------------------------------------------------------------|
Gb|-------------------------------------------------------------------------------------------------|
Db|-7--7--7--7--7--7--7--7--7--7--7--7--7--7--7--7--9--9--9--9--9--9--9--9--7--7--7--7--7--7--7--7--|
Ab|-7--7--7--7--7--7--7--7--5--5--5--5--5--5--5--5--7--7--7--7--7--7--7--7--7--7--7--7--7--7--7--7--|
Eb|-5--5--5--5--5--5--5--5--5--5--5--5--5--5--5--5--7--7--7--7--7--7--7--7--5--5--5--5--5--5--5--5--|

Chorus (Both Guitars)
eb|-------------------------------------------------------------------------------------------------|
Bb|-------------------------------------------------------------------------------------------------|
Gb|-------------------------------------------------------------------------------------------------|
Db|-9--9--9-9---10--10-10-10--10-10-9--9--9-9---10--10-10-10--10-10-9--9--9-9---10--10-10-10--10-10-|
Ab|-7--7--7-9---10--10-10-10--10-10-7--7--7-9---10--10-10-10--10-10-7--7--7-9---10--10-10-10--10-10-|
Eb|-7--7--7-7----8---8--8--8---8--8-7--7--7-7----8---8--8--8---8--8-7--7--7-7----8---8--8--8---8--8-|

eb|--------------------------|
Bb|--------------------------|
Gb|--------------------------|
Db|--9--9----9--9----9--9----|
Ab|--7--7----7--7----7--7----|
Eb|--7--7----7--7----7--7----|

eb|--------------------------------------------------------------------------------|
Bb|--------------------------------------------------------------------------------|
Gb|--------------------------------------------------------------------------------|
Db|--7----7----7----7----9----9----9----9----7----7----7----7----9----9----9----9--|
Ab|--7----7----7----7----7----7----7----7----7----7----7----7----7----7----7----7--|
Eb|--5----5----5----5----7----7----7----7----5----5----5----5----7----7----7----7--|
************************************************************************************
eb|--5----5----5----5---12---12---12---12----5----5----5----5---12---12---12---12--|
Bb|--x----x----x----x----x----x----x----x----x----x----x----x----x----x----x----x--|
Gb|--2----2----2----2----9----9----9----9----2----2----2----2----9----9----9----9--|
Db|--------------------------------------------------------------------------------|
Ab|--------------------------------------------------------------------------------|
Eb|--------------------------------------------------------------------------------|

Second Verse
eb|-------------------------------------------------------------------------------------------------|
Bb|-------------------------------------------------------------------------------------------------|
Gb|-------------------------------------------------------------------------------------------------|
Db|-7--7--7--7--7--7--7--7--9--9--9--9--9--9--9--9--7--7--7--7--7--7--7--7--9--9--9--9--9--9--9--9--|
Ab|-7--7--7--7--7--7--7--7--7--7--7--7--7--7--7--7--7--7--7--7--7--7--7--7--7--7--7--7--7--7--7--7--|
Eb|-5--5--5--5--5--5--5--5--7--7--7--7--7--7--7--7--5--5--5--5--5--5--5--5--7--7--7--7--7--7--7--7--|

eb|-------------------------------------------------------------------------------------------------|
Bb|-------------------------------------------------------------------------------------------------|
Gb|-------------------------------------------------------------------------------------------------|
Db|-7--7--7--7--7--7--7--7--7--7--7--7--7--7--7--7--9--9--9--9--9--9--9--9--7--7--7--7--7--7--7--7--|
Ab|-7--7--7--7--7--7--7--7--5--5--5--5--5--5--5--5--7--7--7--7--7--7--7--7--7--7--7--7--7--7--7--7--|
Eb|-5--5--5--5--5--5--5--5--5--5--5--5--5--5--5--5--7--7--7--7--7--7--7--7--5--5--5--5--5--5--5--5--|

Second Chorus
eb|-------------------------------------------------------------------------------------------------|
Bb|-------------------------------------------------------------------------------------------------|
Gb|-------------------------------------------------------------------------------------------------|
Db|-9--9--9-9---10--10-10-10--10-10-9--9--9-9---10--10-10-10--10-10-9--9--9-9---10--10-10-10--10-10-|
Ab|-7--7--7-9---10--10-10-10--10-10-7--7--7-9---10--10-10-10--10-10-7--7--7-9---10--10-10-10--10-10-|
Eb|-7--7--7-7----8---8--8--8---8--8-7--7--7-7----8---8--8--8---8--8-7--7--7-7----8---8--8--8---8--8-|

eb|--------------------------|
Bb|--------------------------|
Gb|--------------------------|
Db|--9--9----9--9----9--9----|
Ab|--7--7----7--7----7--7----|
Eb|--7--7----7--7----7--7----|

Bridge
eb|----------------------------------------------------------------------------------------|
Bb|----------------------------------------------------------------------------------------|
Gb|--7--7--7----7--7--7----7--7--7----7--7--7----------------------------------------------|
Db|--7--7--7----7--7--7----7--7--7----7--7--7----7--7--7----7--7--7----7--7--7----7--7--7--|
Ab|--5--5--5----5--5--5----5--5--5----5--5--5----7--7--7----7--7--7----7--7--7----7--7--7--|
Eb|--5--5--5----5--5--5----5--5--5----5--5--5----5--5--5----5--5--5----5--5--5----5--5--5--|

eb|------------------------------------------------------------------|
Bb|------------------------------------------------------------------|
Gb|--7--7--7----7--7--7----7--7--7----7--7--7------------------------|
Db|--7--7--7----7--7--7----7--7--7----7--7--7----9--9--9----9--9--9--|
Ab|--5--5--5----5--5--5----5--5--5----5--5--5----7--7--7----7--7--7--|
Eb|--5--5--5----5--5--5----5--5--5----5--5--5----7--7--7----7--7--7--|

Guitar 2 
eb|--11b13r11-8--------7-----|
Bb|--------------------------|
Gb|--------------9--8-----7--|
Db|--------------------------|
Ab|--------------------------|
Eb|--------------------------|

Solo
eb|-------------------------------------------------------------------------------------------------|
Bb|-------------------------------------------------------------------------------------------------|
Gb|-------------------------------------------------------------------------------------------------|
Db|-7--7--7--7--7--7--7--7--9--9--9--9--9--9--9--9--7--7--7--7--7--7--7--7--9--9--9--9--9--9--9--9--|
Ab|-7--7--7--7--7--7--7--7--7--7--7--7--7--7--7--7--7--7--7--7--7--7--7--7--7--7--7--7--7--7--7--7--|
Eb|-5--5--5--5--5--5--5--5--7--7--7--7--7--7--7--7--5--5--5--5--5--5--5--5--7--7--7--7--7--7--7--7--|
*****************************************************************************************************
eb|-------------------------8~----------------------8-----------------------------------------------|
Bb|-------------------------------------------------------------------------------------------------|
Gb|----9----8--7-----------------------------------------9------------------------------------------|
Db|-----------------10--------------------------------------10-----9--7----10--9p7-10---------------|
Ab|-------------------------------------------------------------------------------------------------|
Eb|-------------------------------------------------------------------------------------------------|

eb|-------------------------------------------------------------------------------------------------|
Bb|-------------------------------------------------------------------------------------------------|
Gb|-------------------------------------------------------------------------------------------------|
Db|-7--7--7--7--7--7--7--7--7--7--7--7--7--7--7--7--9--9--9--9--9--9--9--9--7--7--7--7--7--7--7--7--|
Ab|-7--7--7--7--7--7--7--7--5--5--5--5--5--5--5--5--7--7--7--7--7--7--7--7--7--7--7--7--7--7--7--7--|
Eb|-5--5--5--5--5--5--5--5--5--5--5--5--5--5--5--5--7--7--7--7--7--7--7--7--5--5--5--5--5--5--5--5--|
*****************************************************************************************************
eb|-----------------------------------20h22-22--20--20-22---20-20---19-17-19----19--17-17~----------|
Bb|-13-13-15-15-17-17-18-18-20-20-22----------------------------------------------------------------|
Gb|--x--x--x--x--x--x--x--x--x--x--x----------------------------------------------------------------|
Db|-10-10-12-12-14-14-15-15-17-17-19----------------------------------------------------------------|
Ab|-------------------------------------------------------------------------------------------------|
Eb|-------------------------------------------------------------------------------------------------|

Final Chorus
eb|-------------------------------------------------------------------------------------------------|
Bb|-------------------------------------------------------------------------------------------------|
Gb|-------------------------------------------------------------------------------------------------|
Db|-9--9--9-9---10--10-10-10--10-10-9--9--9-9---10--10-10-10--10-10-9--9--9-9---10--10-10-10--10-10-|
Ab|-7--7--7-9---10--10-10-10--10-10-7--7--7-9---10--10-10-10--10-10-7--7--7-9---10--10-10-10--10-10-|
Eb|-7--7--7-7----8---8--8--8---8--8-7--7--7-7----8---8--8--8---8--8-7--7--7-7----8---8--8--8---8--8-|

eb|--------------------------|
Bb|--------------------------|
Gb|--------------------------|
Db|--9--9----9--9----9--9----|
Ab|--7--7----7--7----7--7----|
Eb|--7--7----7--7----7--7----|

Outro
eb|--------------------------------------------------------------------------------------|
Bb|--------------------------------------------------------------------------------------|
Gb|--------------------------------------------------------------------------------------|
Db|--7--7--7--7--7--7--7--7--9--9--9--9--9--9--7--7--7--7--7--7--7--7--9--9--9--9--9--9--|
Ab|--7--7--7--7--7--7--7--7--7--7--7--7--7--7--7--7--7--7--7--7--7--7--7--7--7--7--7--7--|
Eb|--5--5--5--5--5--5--5--5--7--7--7--7--7--7--5--5--5--5--5--5--5--5--7--7--7--7--7--7--|
******************************************************************************************
eb|--5--5--5--5--5--5--5--5--7--7--7--7--7--7--8--8--8--8--8--8--8--8-10-10-10-10-10-10--|
Bb|--x--x--x--x--x--x--x--x--x--x--x--x--x--x--x--x--x--x--x--x--x--x--x--x--x--x--x--x--|
Gb|--2--2--2--2--2--2--2--2--4--4--4--4--4--4--5--5--5--5--5--5--5--5--7--7--7--7--7--7--|
Db|--------------------------------------------------------------------------------------|
Ab|--------------------------------------------------------------------------------------|
Eb|--------------------------------------------------------------------------------------|

eb|-------------------------------------------------------------------------------------|
Bb|-------------------------------------------------------------------------------------|
Gb|-------------------------------------------------------------------------------------|
Db|-7--7--7--7--7--7--7--7--7--7--7--7--7--7--7--7--7--7--7--7--7--7--9--9--9--9--9--9--|
Ab|-7--7--7--7--7--7--7--7--5--5--5--5--5--5--7--7--7--7--7--7--7--7--7--7--7--7--7--7--|
Eb|-5--5--5--5--5--5--5--5--5--5--5--5--5--5--5--5--5--5--5--5--5--5--7--7--7--7--7--7--|
*****************************************************************************************
eb|-12-12-12-12-12-12-12-12-13-13-13-13-13-13-15-15-15-15-15-15-15-15-16-16-16-16-16-16-|
Bb|--x--x--x--x--x--x--x--x--x--x--x--x--x--x--x--x--x--x--x--x--x--x--x--x--x--x--x--x-|
Gb|--9--9--9--9--9--9--9--9-10-10-10-10-10-10-12-12-12-12-12-12-12-12-13-13-13-13-13-13-|
Db|-------------------------------------------------------------------------------------|
Ab|-------------------------------------------------------------------------------------|
Eb|-------------------------------------------------------------------------------------|

eb|------------|
Bb|------------|
Gb|------------|
Db|--7--7--7\--|
Ab|--7--7--7\--|
Eb|--5--5--5\--|
****************
eb|-17-17-17\--|
Bb|--x--x--x---|
Gb|-14-14-14\--|
Db|------------|
Ab|------------|
Eb|------------|
Tap to rate this tab
 
# A B C D E F G H I J K L M N O P Q R S T U V W X Y Z