Song name
# A B C D E F G H I J K L M N O P Q R S T U V W X Y Z

Weezer - Automatic tab

Intro:
e|---------------|
B|---------------|
G|---------------|
D|---------------|
A|0-0-0-0-0-0-0-0| 
E|---------------|... fades off


Pre-Chorus:
"I might need some time to remember, need some time to remember..."
e|--------------------------------------------|
B|--------------------------------------------|
G|-------0------------------------------------|
D|-----2---4------------------7--7---5-7----5-|
A|---3-------5----------------7--7---5-7----5-| 
E|-3-----------5-----5--5---5-5--5---3-5----3-|


Chorus:
e|-----------------------------------------------------------------|
B|------------------------------------0------------------------3---|
G|-----------------------------------5----5-----------------5--4---|
D|-7-5--x-x---7-5--x-x---7-5-----4h5------------7-5-----4h5--------|
A|-7-5--x-x---7-5--x-x---7-5--------------------7-5----------------|
E|-5-3--x-x---5-3--x-x---5-3--------------------5-3----------------| x2



"When do I lay down..."
e|---|
B|---|
G|---|
D|-7-|
A|-7-| 
E|-5-|

Pre-chorus x1

Chorus x1

Bridge
"I got some..."
e|---------------------------------------|
B|----------------0----------------------|
G|-------------(3)-----------------------|
D|-7-5-------(3)---------0---------0-----|
A|-7-5-----(3)---------0---------0-------| 
E|-5-3---(3)---------2-----1-------------|

()=harmonics
*note* Those harmonics are the closest I could find, but I could be wrong.


Solo:

Guitar 1:
e|---------------------------------------------------------------------|
B|-15b17--15b17-17-17-17b16-16-16-16b17-17-17-17-17b15--13h14----------|
G|---------------------------------------------------------------------|
D|---------------------------------------------------------------------|
A|---------------------------------------------------------------------| 
E|---------------------------------------------------------------------|

e|-12--15--14b15--------------------------------------------------|
B|-------------------14----14-12b14-------14/12-12-12-12-12-12-12-|
G|----------------------------------------------------------------|
D|----------------------------------------14/12-12-12-12-12-12-12-|
A|----------------------------------------------------------------| 
E|----------------------------------------------------------------|


Guitar 2:
e|------------------------------------------------------------------|
B|-15b17--15b17-17-17-17-17-17-17-17-17-17-17b15--13h14-------------|
G|------------------------------------------------------------------|
D|------------------------------------------------------------------|
A|------------------------------------------------------------------| 
E|------------------------------------------------------------------|

e|-12--15-15-14-12-14-14-12------------------------------------------|
B|--------------------------14---14-12b14----14/12-12-12-12-12-12-12-|
G|-------------------------------------------------------------------|
D|-------------------------------------------14/12-12-12-12-12-12-12-|
A|-------------------------------------------------------------------| 
E|-------------------------------------------------------------------|

Chorus x1


Outro:
e|-10------10-------5-----7----5--------------|
B|---8---8----7---7---5----------5-7----------|
G|-----9--------7-------6---------------------|
D|--------------------------------------------|
A|--------------------------------------------| 
E|--------------------------------------------| x4
Tap to rate this tab
# A B C D E F G H I J K L M N O P Q R S T U V W X Y Z