Song name
# A B C D E F G H I J K L M N O P Q R S T U V W X Y Z

Weezer - Pink Triangle chords

Highlighted       Show chord diagrams
Intro

(finger picked, played twice)

E---3-------5-------7-----------5---3-------2-------3---------------|
B-------3-------5-------7---------------3-------3-------3-------3---|
G---4-------5-------7-------7---5---4-------2-------4-------4-------|
D-------------------------------------------------------------------|
A-------------------------------------------------------------------|
E-------------------------------------------------------------------|

E---10-----12-----7-----8-----3-----5--3--2--3---|
B------------------------------------------------|
G------------------------------------------------|
D------------------------------------------------|
A------------------------------------------------|
E------------------------------------------------|

Em                   Am      D                        G
When Im stable long enough I start to look around for love
Em                     Am        D                      G
See a sweet and floral print, my mind begins the arrangements. But
Em                        Am    D                         G
when I start to feel that pull, turns out I just pulled myself
Em                      Am  D                       G
She would never go with me, were I the last girl on Earth

G    Bm           C    G
  Im dumb, shes a lesbian. I
C             G         D
thought I had found the one
Em      Bm      C             G
We were good as married in my mind, but
C             G        D
married in my minds no good
C    Bm Am    D      Em
Pink triangle on her sleeve
C               G
Let me know the truth
C      D        G
Let me know the truth

(intro)

Em                            Am        D                     
 G
Might have smoked a few in my time, but never thought it was a crime
Em                        Am    D                        G
Knew the day would surely come, when Id chill and settle down, but
Em                     Am                       D             
        G
when I think I found a good old fashioned girl, then she put me in my place
Em                 Am     D                       G
Everyones a little queer, oh cant she be a little straight?

G    Bm           C    G
  Im dumb, shes a lesbian. I
C             G         D
thought I had found the one
Em      Bm      C             G
We were good as married in my mind, but
C             G        D
married in my minds no good
C    Bm Am    D      Em
Pink triangle on her sleeve
C               G
Let me know the truth
C      D        G
Let me know the truth

(solo)

G    Bm           C    G
  Im dumb, shes a lesbian. I
C             G         D
thought I had found the one
Em      Bm      C             G
We were good as married in my mind, but
C             G        D
married in my minds no good
C    Bm Am    D      Em
Pink triangle on her sleeve
C               G
Let me know the truth
C      D        G
Let me know the truth

G    Bm           C    G
  Im dumb, shes a lesbian. I
C             G         D
thought I had found the one
Em      Bm      C             G
We were good as married in my mind, but
C             G        D
married in my minds no good
C    Bm Am    D      Em
Pink triangle on her sleeve
C               G
Let me know the truth
C      D        G
Let me know the truth
C      D        G
Let me know the truth

(intro)
Tap to rate this tab
# A B C D E F G H I J K L M N O P Q R S T U V W X Y Z