Song name
# A B C D E F G H I J K L M N O P Q R S T U V W X Y Z

Weezer - The Girl Got Hot tab

-------------------------------------------------------------------------------
                        The Girl Got Hot - Weezer
-------------------------------------------------------------------------------

Tabbed by: Nicolai Kozel
E-mail: nicolaikozel@live.ca

Tuning: EADGBE

Intro
e|---------------------------------| 
B|---------------------------------|
G|---------------------------------|
D|--6/7---6/7---6/7--6/7--6/7-X-X--|
A|--6/7---6/7---6/7--6/7--6/7-X-X--|
E|--4/5---4/5---4/5--4/5--4/5-X-X--|

Interlude ("Oh" Part)
e|----------------------------------|X2  
B|----------------------------------|
G|----------6/7---------------------|
D|--6/7-----6/7-----6/7-----4/5-\---|
A|--6/7-----4/5-----6/7-----4/5-\---|
E|--4/5-------------4/5-----2/3-\---|

Verse                           End 1              End 2                   (Whole Section x2) 
e|-------------------------||----------------| |--------------|
B|-------------------------||----------------| |--------------|
G|----------6/7-----------.||----------------| |--8/9-9-------|
D|--6/7-----6/7-----6/7---.||--4/5-5--4/5-5--| |--8/9-9--7-\--|
A|--6/7-----4/5-----6/7----||--4/5 5--4/5-5--| |--6/7-7--7-\--|
E|--4/5-------------4/5----||--2/3-3--2/3-5--| |---------5-\--|

Chorus 
e|------------------------------------|-------------|
B|------------------------------------|-------------|
G|------------------------------------|-------(x8)--|
D|--7-7-7-7-7-7-7-7-7-7-7-7-7-7-7-7---|--7(x)-------|
A|--7-7-7-7-7-7-7-7-7-7-7-7-7-7-7-7---|--7(x)-------|
E|--5-5-5-5-5-5-5-5-5-5-5-5-5-5-5-5---|--5(x)-------|

e|-----------------------------------------------------|
B|-----------------------------10~---------------------|
G|--4444444444444444--------12-----12---------12-13~---|
D|--4444444444444444---9-12-----------12-9-12----------|
A|--2222222222222222-----------------------------------|
E|-----------------------------------------------------|

Interlude ("Oh" Part)
e|----------------------------------|  
B|----------------------------------|
G|----------6/7---------------------|
D|--6/7-----6/7-----6/7-----4/5-\---|
A|--6/7-----4/5-----6/7-----4/5-\---|
E|--4/5-------------4/5-----2/3-\---|

Verse 2                          End 1             End 2                  
e|-------------------------||----------------| |--------------|
B|-------------------------||----------------| |--------------|
G|----------6/7-----------.||----------------| |--8/9-9-------|
D|--6/7-----6/7-----6/7---.||--4/5-5--4/5-5--| |--8/9-9--7-\--|
A|--6/7-----4/5-----6/7----||--4/5 5--4/5-5--| |--6/7-7--7-\--|
E|--4/5-------------4/5----||--2/3-3--2/3-5--| |---------5-\--|

e|--------------------------------------------------------------------------|
B|--------------------------------------------------------------------------|
G|------------77777777--------------------------------77777777--------9999--|
D|--77777777--77777777--77777777--55555555--77777777--77777777--7777--9999--|
A|--77777777--55555555--77777777--55555555--77777777--55555555--5555--7777--|
E|--55555555------------55555555--33333333--55555555------------5555--------|

e|------------| (Just Jam This Chord) 
B|------------|
G|------------|
D|--7XXXXXX\--|
A|--7XXXXXX\--|
E|--5XXXXXX\--|

Chorus 2
e|------------------------------------|-------------|
B|------------------------------------|-------------|
G|------------------------------------|-------(x8)--|
D|--7-7-7-7-7-7-7-7-7-7-7-7-7-7-7-7---|--7(x)-------|
A|--7-7-7-7-7-7-7-7-7-7-7-7-7-7-7-7---|--7(x)-------|
E|--5-5-5-5-5-5-5-5-5-5-5-5-5-5-5-5---|--5(x)-------|

e|-----------------------------------------------------|
B|-----------------------------10~---------------------|
G|--4444444444444444--------12-----12---------12-13~---|
D|--4444444444444444---9-12-----------12-9-12----------|
A|--2222222222222222-----------------------------------|
E|-----------------------------------------------------|

Bridge 
Guitar 1 (Watch the Timing for This, Its Tricky, Especially Coming In) 
e|-------------------------------------------------------------------------|
B|----------------------------------------------------12b-(b)-(b)-(b)-(x)--|
G|--9br------------9br6-------6------9br6-11-9-13br11----------------------|
D|-----11-9\7-7-9-------9-7-9----9-7---------------------------------------|
A|-------------------------------------------------------------------------|
E|-------------------------------------------------------------------------|

Guitar 2
e|----------------------------| x3 
B|----------------------------|
G|--------------99999X-XX-X---|
D|--7-X-4-XX-X--99999X-XX-X---|
A|--7-X-4-XX-X--77777X-XX-X---|
E|--5-X-2-XX-X----------------|

************ Drum + Vocal Break ************

Half Chorus
e|-----------------------------------------------------|
B|-----------------------------10~---------------------|
G|--4444444444444444--------12-----12---------12-13~---|
D|--4444444444444444---9-12-----------12-9-12----------|
A|--2222222222222222-----------------------------------|
E|-----------------------------------------------------|

Outro ("Oh" Part Basically)
e|----------------------------------| Repeat Till End   
B|----------------------------------|
G|----------6/7---------------------|
D|--6/7-----6/7-----6/7-----3/5-\---|
A|--6/7-----4/5-----6/7-----3/5-\---|
E|--4/5-------------4/5-----2/3-\---|

End                           
e|-----------------| 
B|-----------------| 
G|-----------------|
D|--3/5-5--3/5-5\--| 
A|--3/5 5--3/5-5\--|
E|--2/3-3--2/3-5\--| 


************************************

| /   slide up
| \   slide down
| h   hammer-on
| p   pull-off
| ~   vibrato
| +   harmonic
| x   Mute note
| b   Bend
| pb  Pre-bend
| br  Bend release
| pbr Pre-bend release
| brb Bend release bend

************************************
Tap to rate this tab
# A B C D E F G H I J K L M N O P Q R S T U V W X Y Z