Song name
# A B C D E F G H I J K L M N O P Q R S T U V W X Y Z

Weezer - The Good Life tab

by weezer song THE GOOD LIFE.
        from the album "pinkerton "
        music by rivers cuomo
        tabbed by Alister Mclean posted by Jack Powell

eb|-----------------------------|
Bb|-----------------------------|
Gb|-----------------------------|
Db|-5--x-5-5--2-----------------|
Ab|-5--x-5-5--2-----------------|
Eb|-3--x-3-3--0-----------------|




Verse
eb|--------------------------------------------------|
Bb|--------------------------------------------------|
Gb|------------7x-7-7-7-7----------------------------|
Db|-5-x-5-5-5--7x-7-7-7-7--7-x-7-7-7--2-2-2-2--------|
Ab|-5-x-5-5-5--5x-5-5-5 5- 7-x 7-7-7--2-2-2-2--------|
Eb|-3-x-3-3-3--------- ----5-x 5-5-5--0-0-0-0--------|



eb|-------------------------|-----|
Bb|-------------------------|-----|
Gb|2-2-2-2-2-2-2-2-2-2-2-4-4-4-4--|
Db|2-2-2-2-2-2-2-2-2-2-2-4-4-4-4--|
Ab|5-5-5-5-4-4-4-4-4-4-4-4-4-4-4--|
eb|-------------------------|-----|




Chorus
eb|---------------------------------------------------|
Bb|---------------------------------------------------|
Gb|----5-5-5-5-5--7-7-7-7-7---------------------------|
Db|----5-5-5-5-5--7-7-7-7-7-----5-5-5-5----2-2-2-2----|
Ab|----3-3-3-3-3--5-5-5-5-5-----5-5-5-5----2-2-2-2----|
eb|-----------------------------3-3-3-3----0-0-0-0----|


eb|------------------------------------|
Bb|------------------------------------|
Gb|-----------7 7-7-7------------------|
Db|--7-7-7-7--7-7-7-7-5-5-5-5--2-2-2-2-|
Ab|--7-7-7-7--5-5-5-5-5-5-5-5--2-2-2-2-|
Eb|--5-5-5-5----------3-3-3-3--0-0-0-0-|



solo
eb----15b17-15-------------------------------|
Bb-15----------------------------------------|
Gb-------------------------------------------|
Db-------------------------------------------|
Ab-------------------------------------------|
Eb-------------------------------------------|

eb-3-3-4-5--4-3---000---11-9--77-------------|
Bb--------------------------------10--9-7-9--|
Gb-------------------------------------------|
Db-------------------------------------------|
Ab-------------------------------------------|
Eb-------------------------------------------|



                           Go spastic
eb-------------------9--7--------------------|
Bb--------9-9-9--7---------------------------|
Gb888-6--------------------------------------|
Db-------------------------------------------|
Ab-------------------------------------------|
Eb-------------------------------------------|


eb--17--16--14-------------------------------|
Bb--------------17--16--14-------------------|
Gb--------------------------16~~~~---------- |
Db-------------------------------------------|
Ab-------------------------------------------|
Eb-------------------------------------------|


capo solo
eb|--------------------10-------------------------------------|
Bb|-5/19---17---12--10----12-12-12-13-13-12--10--8--8--10--12-|
Gb|-----------------------------------------------------------|
Db|-----------------------------------------------------------|
Ab|-----------------------------------------------------------|
Eb|-----------------------------------------------------------|

eb|-----------------------------------|
Bb|-----12--10--8---10---8--7-------3-|
Gb|---9-----------7-------------------|
Db|-----------------------------------|
Ab|-----------------------------------|
Eb|-----------------------------------|
Tap to rate this tab
# A B C D E F G H I J K L M N O P Q R S T U V W X Y Z