Guitaretab - guitar tabs
Song name
# A B C D E F G H I J K L M N O P Q R S T U V W X Y Z

Weezer - Sweater Song tab

Intro
 e|----------------------------------------------------------------------|
B|------------------0-----------0-----------0-----------0----------------|
G|---------------3-----------3-----------5-----------3-------------------|
D|------------2-----------2-----------4-----------2----------------------|
A|---------------------3-----------5-----------3-------------------------|
E|--------3--------------------------------------------------------------|
[ Tab from: http://www.guitaretab.com/w/weezer/54113.html ]
in the verse there is no guitar just bass and drum

Chorus
e|-----------------------------------------------------------------------|
B|-------------------------------------------------------------------o---|
G|---------------------5--5--5--5---7--7--7--7---5--5--5--5--------------|
D|--------5--5--5--5---5--5--5--5---7--7--7--7---5--5--5--5--------------|
A|--------5--5--5--5---3--3--3--3---5--5--5--5---3--3--3--3---------o----|
E|--------3--3--3--3-----------------------------------------------------|
Related for Sweater Song tab
×
Sweater Song