Song name
# A B C D E F G H I J K L M N O P Q R S T U V W X Y Z

Weezer - Haunt You Every Day tab

-------------------------------------------------------------------------------
			     Haunt You Every Day - Weezer
-------------------------------------------------------------------------------

Tabbed by: cjpm105

Tuning: Guitar 1 - Standard, half step down.
        Guitar 2 - Standard, half step down.
        Guitar 3 - Standard, half step down.

Key
| /  slide up
| \  slide down
| h  hammer-on
| p  pull-off
| ~  sustain
| *  harmonic
| x  Mute note
| b  bend
| r  release

Guitars 1 and 2 play the same thing during the intro, verses, and pre-chorus and play separate parts 
during the chorus and first solo. Guitar 3 only comes in during the last solo. At the end of the 
first solo, the 17r is lowering the note using a whammy bar rather than releasing from a bent 17. 

Intro/ Verse
eb|------------------------------------------------------------------------------------------------|
Bb|--------------12--------------------------------------------------------------------------------|
Gb|--14--------------------------------------------------------------------------------------------|
Db|--------14--------------14--12--14--15------------------------12--------------------------------|
Ab|----------------------------------------14--------15--14--15------12--------12--11--12--14--11--|
Eb|------------------------------------------------------------------------------------------------|

eb|------------------------------------------------------------------------------------------------|
Bb|------------------------------------------------------------------------------------------------|
Gb|------------------------------------------------------------------------------------------------|
Db|------------14------------------15--------------------------------------------------------------|
Ab|--12--14--------------14--15--------------12--14--14--12--15--------14--12--14--15--11----------|
Eb|------------------------------------------------------------------------------------------------|

eb|------------------------------------------------------------------------------------------------|
Bb|------------15------------------13------------------13----------------15------------------------|
Gb|------14------------------12------------------12------------------12------12--------------------|
Db|--14------------------15------------------14------------------15--------------14----------------|
Ab|------------------------------------------------------------------------------------------------|
Eb|------------------------------------------------------------------------------------------------|

Pre-chorus (clean) - 0:34
eb|-------------------------------------------------------------------------------------------------|
Bb|-----5-----5-----5-----5-----6-----6-----6-----6-----5-----5-----5-----5-----6-----6-----5-----5-|
Gb|--5-----5-----5-----5-----7-----7-----4-----4-----5-----5-----5-----5-----7-----7-----4-----4----|
Db|-------------------------------------------------------------------------------------------------|
Ab|-------------------------------------------------------------------------------------------------|
Eb|-------------------------------------------------------------------------------------------------|

Chorus
eb|-------------------------------------------------------------------------------------------------|
Bb|-------------------------------------------------------------------------------------------------|
Gb|--------------------------7--7--7--7--------------5--5--5--5--------------4--4--4--4-------------|
Db|--7--7--7--7--7--7--7--7--7--7--7--7--5--5--5--5--5--5--5--5--3--3--3--3--4--4--4--4--2--2--2--2-|
Ab|--7--7--7--7--7--7--7--7--5--5--5--5--5--5--5--5--3--3--3--3--3--3--3--3--2--2--2--2--2--2--2--2-|
Eb|--5--5--5--5--5--5--5--5--------------3--3--3--3--------------1--1--1--1--------------0--0--0--0-|
*****************************************************************************************************
eb|-------------------------------------------------------------------------------------------------|
Bb|--12----13----12----13----12----13----12----13----12----------12----------12----13-12------------|
Gb|-----14----14----14----14----14----14----14----14----14-12-14-14b------------------------14--14--|
Db|-------------------------------------------------------------------------------------------------|
Ab|-------------------------------------------------------------------------------------------------|
Eb|-------------------------------------------------------------------------------------------------|

eb|-------------------------------------------------------------------------------------------------|
Bb|-------------------------------------------------------------------------------------------------|
Gb|--------------------------7--7--7--7--------------5--5--5--5--------------4~---------------------|
Db|--7--7--7--7--7--7--7--7--7--7--7--7--5--5--5--5--5--5--5--5--3--3--3--3--4~----------2~---------|
Ab|--7--7--7--7--7--7--7--7--5--5--5--5--5--5--5--5--3--3--3--3--3--3--3--3--2~----------2~---------|
Eb|--5--5--5--5--5--5--5--5--------------3--3--3--3--------------1--1--1--1--------------0~---------|
*****************************************************************************************************
eb|-------------------------------------------------------------------------------------------------|
Bb|--------13----------13----------13----------13----12-12-12-12------------------------------------|
Gb|--14-14----14-14-14----14-14-14----14-14-14----14-------------14-14-14-14-14~---------13~--------|
Db|-------------------------------------------------------------------------------------------------|
Ab|-------------------------------------------------------------------------------------------------|
Eb|-------------------------------------------------------------------------------------------------|

Second Verse
eb|------------------------------------------------------------------------------------------------|
Bb|--------------12--------------------------------------------------------------------------------|
Gb|--14--------------------------------------------------------------------------------------------|
Db|--------14--------------14--12--14--15------------------------12--------------------------------|
Ab|----------------------------------------14--------15--14--15------12--------12--11--12--14--11--|
Eb|------------------------------------------------------------------------------------------------|

eb|------------------------------------------------------------------------------------------------|
Bb|------------------------------------------------------------------------------------------------|
Gb|------------------------------------------------------------------------------------------------|
Db|------------14------------------15--------------------------------------------------------------|
Ab|--12--14--------------14--15--------------12--14--14--12--15--------14--12--14--15--11----------|
Eb|------------------------------------------------------------------------------------------------|

eb|------------------------------------------------------------------------------------------------|
Bb|------------15------------------13------------------13----------------15------------------------|
Gb|------14------------------12------------------12------------------12------12--------------------|
Db|--14------------------15------------------14------------------15--------------14----------------|
Ab|------------------------------------------------------------------------------------------------|
Eb|------------------------------------------------------------------------------------------------|

eb|-------------------------------------------------------------------------------------------------|
Bb|-----5-----5-----5-----5-----6-----6-----6-----6-----5-----5-----5-----5-----6-----6-----5-----5-|
Gb|--5-----5-----5-----5-----7-----7-----4-----4-----5-----5-----5-----5-----7-----7-----4-----4----|
Db|-------------------------------------------------------------------------------------------------|
Ab|-------------------------------------------------------------------------------------------------|
Eb|-------------------------------------------------------------------------------------------------|

Second Chorus
eb|-------------------------------------------------------------------------------------------------|
Bb|-------------------------------------------------------------------------------------------------|
Gb|--------------------------7--7--7--7--------------5--5--5--5--------------4--4--4--4-------------|
Db|--7--7--7--7--7--7--7--7--7--7--7--7--5--5--5--5--5--5--5--5--3--3--3--3--4--4--4--4--2--2--2--2-|
Ab|--7--7--7--7--7--7--7--7--5--5--5--5--5--5--5--5--3--3--3--3--3--3--3--3--2--2--2--2--2--2--2--2-|
Eb|--5--5--5--5--5--5--5--5--------------3--3--3--3--------------1--1--1--1--------------0--0--0--0-|
*****************************************************************************************************
eb|-------------------------------------------------------------------------------------------------|
Bb|--12----13----12----13----12----13----12----13----12----------12----------12----13-12------------|
Gb|-----14----14----14----14----14----14----14----14----14-12-14-14b------------------------14--14--|
Db|-------------------------------------------------------------------------------------------------|
Ab|-------------------------------------------------------------------------------------------------|
Eb|-------------------------------------------------------------------------------------------------|

eb|-------------------------------------------------------------------------------------------------|
Bb|-------------------------------------------------------------------------------------------------|
Gb|--------------------------7--7--7--7--------------5--5--5--5--------------4~---------------------|
Db|--7--7--7--7--7--7--7--7--7--7--7--7--5--5--5--5--5--5--5--5--3--3--3--3--4~----------2~---------|
Ab|--7--7--7--7--7--7--7--7--5--5--5--5--5--5--5--5--3--3--3--3--3--3--3--3--2~----------2~---------|
Eb|--5--5--5--5--5--5--5--5--------------3--3--3--3--------------1--1--1--1--------------0~---------|
*****************************************************************************************************
eb|-------------------------------------------------------------------------------------------------|
Bb|--------13----------13----------13----------13----12-12-12-12------------------------------------|
Gb|--14-14----14-14-14----14-14-14----14-14-14----14-------------14-14-14-14-14~---------13~--------|
Db|-------------------------------------------------------------------------------------------------|
Ab|-------------------------------------------------------------------------------------------------|
Eb|-------------------------------------------------------------------------------------------------|

First Solo
eb|------------------------12----13--------12---------------------------12----13--------12----------|
Bb|----------------13--15------------15--------13~--------------13--15------------15--------13------|
Gb|--14~-------14-------------------------------------------14--------------------------------------|
Db|-------------------------------------------------------------------------------------------------|
Ab|-------------------------------------------------------------------------------------------------|
Eb|-------------------------------------------------------------------------------------------------|
*****************************************************************************************************
eb|-------------------------------------------------------------------------------------------------|
Bb|-------------------------------------------------------------------------------------------------|
Gb|--------------------------5--5--5--5--------------------------------------5--5--5--5-------------|
Db|--3--3--3--3--3--3--3--3--5--5--5--5--5--5--5--5--3--3--3--3--3--3--3--3--5--5--5--5--5--5--5--5-|
Ab|--3--3--3--3--3--3--3--3--3--3--3--3--5--5--5--5--3--3--3--3--3--3--3--3--3--3--3--3--5--5--5--5-|
Eb|--1--1--1--1--1--1--1--1--------------3--3--3--3--1--1--1--1--1--1--1--1--------------3--3--3--3-|

eb|-------------------------------------------------------------------------------------------------|
Bb|--13--12-12--12-13--13-12--12-15--15-13--13-12--12-15--15-13--13-12--12-13----12-13--12-13-12----|
Gb|----------------------------------------------------------------------------------------------14-|
Db|-------------------------------------------------------------------------------------------------|
Ab|-------------------------------------------------------------------------------------------------|
Eb|-------------------------------------------------------------------------------------------------|
*****************************************************************************************************
eb|-------------------------------------------------------------------------------------------------|
Bb|-------------------------------------------------------------------------------------------------|
Gb|--------------------------5---5---5---5----------------------------------------------------------|
Db|--3--3--3--3--3--3--3--3--5---5---5---5---5---5---5---5----3----3----3----3----3----3----3----3--|
Ab|--3--3--3--3--3--3--3--3--3---3---3---3---5---5---5---5----3----3----3----3----3----3----3----3--|
Eb|--1--1--1--1--1--1--1--1------------------3---3---3---3----1----1----1----1----1----1----1----1--|

eb|---------------------------------15---------15---------15--------------|
Bb|--17~-------15~--------17------------17r--------17r--------17r----13~--|
Gb|-----------------------------------------------------------------------|
Db|-----------------------------------------------------------------------|
Ab|-----------------------------------------------------------------------|
Eb|-----------------------------------------------------------------------|
***************************************************************************
eb|-----------------------------------------------------------------------|
Bb|-----------------------------------------------------------------------|
Gb|--5~-------------------------------------------------------------------|
Db|--5~--------5~----------2~---------------------------------------------|
Ab|--3~--------5~----------2~---------------------------------------------|
Eb|------------3~----------0~---------------------------------------------|

Third Chorus (3:00)
eb|-------------------------------------------------------------------------------------------------|
Bb|-------------------------------------------------------------------------------------------------|
Gb|--------------------------7--7--7--7--------------5--5--5--5--------------4--4--4--4-------------|
Db|--7--7--7--7--7--7--7--7--7--7--7--7--5--5--5--5--5--5--5--5--3--3--3--3--4--4--4--4--2--2--2--2-|
Ab|--7--7--7--7--7--7--7--7--5--5--5--5--5--5--5--5--3--3--3--3--3--3--3--3--2--2--2--2--2--2--2--2-|
Eb|--5--5--5--5--5--5--5--5--------------3--3--3--3--------------1--1--1--1--------------0--0--0--0-|
*****************************************************************************************************
eb|-------------------------------------------------------------------------------------------------|
Bb|--12----13----12----13----12----13----12----13----------------12----------12----13-12------------|
Gb|-----14----14----14----14----14----14----14----14p12----12-14-14b------------------------14--14--|
Db|-----------------------------------------------------14------------------------------------------|
Ab|-------------------------------------------------------------------------------------------------|
Eb|-------------------------------------------------------------------------------------------------|

eb|-------------------------------------------------------------------------------------------------|
Bb|-------------------------------------------------------------------------------------------------|
Gb|--------------------------7--7--7--7--------------5--5--5--5--------------4~---------------------|
Db|--7--7--7--7--7--7--7--7--7--7--7--7--5--5--5--5--5--5--5--5--3--3--3--3--4~----------2~---------|
Ab|--7--7--7--7--7--7--7--7--5--5--5--5--5--5--5--5--3--3--3--3--3--3--3--3--2~----------2~---------|
Eb|--5--5--5--5--5--5--5--5--------------3--3--3--3--------------1--1--1--1--------------0~---------|
*****************************************************************************************************
eb|-------------------------------------------------------------------------------------------------|
Bb|--------13----------13----------13----------13----12-12-12-12------------------------------------|
Gb|--14-14----14-14-14----14-14-14----14-14-14----14-------------14-14-14-14-14~---------13~--------|
Db|-------------------------------------------------------------------------------------------------|
Ab|-------------------------------------------------------------------------------------------------|
Eb|-------------------------------------------------------------------------------------------------|

eb|-------------------------------------------------------------------------------------------------|
Bb|-------------------------------------------------------------------------------------------------|
Gb|--------------------------7--7--7--7--------------5--5--5--5--------------4~---------------------|
Db|--7--7--7--7--7--7--7--7--7--7--7--7--5--5--5--5--5--5--5--5--3--3--3--3--4~-------2~------------|
Ab|--7--7--7--7--7--7--7--7--5--5--5--5--5--5--5--5--3--3--3--3--3--3--3--3--2~-------2~------------|
Eb|--5--5--5--5--5--5--5--5--------------3--3--3--3--------------1--1--1--1-----------0~------------|
*****************************************************************************************************
eb|-------------------------------------------------------------------------------------------------|
Bb|--12----13----12----13----12----13----12----13----12----------12----------15~------17~-----------|
Gb|-----14----14----14----14----14----14----14----14----14-12-14-14b--------------------------------|
Db|-------------------------------------------------------------------------------------------------|
Ab|-------------------------------------------------------------------------------------------------|
Eb|-------------------------------------------------------------------------------------------------|

During this last solo, Guitars 1 and 2 play the chorus while Guitar 3 plays the solo. 
eb|----------------------------------------------------------------------------------|
Bb|----------------------------------------------------------------------------------|
Gb|----------------------------------------------------------------------------------|
Db|--10-10-10-10-10~----10--10~-------9~----14~-------14----15--12-------14~---------|
Ab|------------------------------------------------------------------15--------------|
Eb|----------------------------------------------------------------------------------|

eb|-----------------------------------------------------------------------------------------------|
Bb|--12-13-13~-----(13)-12-12~------(12)-15-15~-----(15)-13-13~------(13)-17-17~------(17)-15-15~-|
Gb|-----------------------------------------------------------------------------------------------|
Db|-----------------------------------------------------------------------------------------------|
Ab|-----------------------------------------------------------------------------------------------|
Eb|-----------------------------------------------------------------------------------------------|

eb|-----------------------17-15~--------------17-15~--------------20-19~----20-19~----20-19~------|
Bb|--18-17~----18-17~---------------18-17~--------------18-17~------------------------------------|
Gb|-----------------------------------------------------------------------------------------------|
Db|-----------------------------------------------------------------------------------------------|
Ab|-----------------------------------------------------------------------------------------------|
Eb|-----------------------------------------------------------------------------------------------|

eb|--17-17~--------20-20~----20b22-19~----17-20~-----------------------17~----15------------------|
Bb|-----------------------------------------------------17~-----------------------17~----15--13~--|
Gb|-----------------------------------------------------------------------------------------------|
Db|-----------------------------------------------------------------------------------------------|
Ab|-----------------------------------------------------------------------------------------------|
Eb|-----------------------------------------------------------------------------------------------|
Tap to rate this tab
 
# A B C D E F G H I J K L M N O P Q R S T U V W X Y Z