Song name
# A B C D E F G H I J K L M N O P Q R S T U V W X Y Z

Weezer - Blue Album tab

Artist:Weezer
Album:Blue
tabbed by: mitch rushton

i thought it would be cool to tab this since the other tabs aren't complete and cause 
is an awesome album. i'm pretty sure its 99.9% accurate. All songs are tuned a half step 
except No One Else which is standard tuning.

1.My Name is Jonas

intro: (finger picking)play it really fast
eb---------------------------------0--------------------------0---------|
Bb-----1----------1-----------0------0-----1-----1-------0------0-------|
F#-------0----------0-----------0------------2-----2-------0------------|
C#---------2----------------------0------------2-------------0----------|
Ab---3----------3-----------2------------0-------------2----------------|
Eb----------------------------------------------------------------------|

verse:
eb----------------------|
Bb----------------------|
F#--555-------------5---|
C#--555-555-777-333-5---|
Ab--333-555-777-333-3---|
Eb------333-555-111-----|

Pre-Chorus:
eb-------------------------------|
Bb-------------------------------|
F#--5-5-5------------------------|
C#--5-5-5-7-7-7-5-5-5-5-5-5------|
Ab--3-3-3-7-7-7-5-5-5-5-5-5------|
Eb--------5-5-5-3-3-3-3-3-3------|

Chorus:
eb----5-5-5-5-5-5--7-7-7-7-7-7--8-8-8-8-8-8--10-10-10-10-10-10-|
Bb-------------------------------------------------------------|
F#----2-2-2-2-2-2--4-4-4-4-4-4--5-5-5-5-5-5--7--7--7--7--7--7--|
C#-------------------------------------------------------------|
Ab-------------------------------------------------------------|
Eb-------------------------------------------------------------|

eb----12-12-12-12-12-12--13-13-13-13-13-13--15-15-15-17-17-17--|
Bb-------------------------------------------------------------|
F#----9--9--9--9--9--9---10-10-10-10-10-10--12-12-12-14-14-14--|
C#-------------------------------------------------------------|
Ab-------------------------------------------------------------|
Eb-------------------------------------------------------------|

eb----19-19-19-19-19-19---|
Bb------------------------|
F#----16-16-16-16-16-16---|
C#------------------------|
Ab------------------------|
Eb------------------------|

Lead into solo
eb------------------------|
Bb------------------------|
F#---5-5-5-5-5-5----------|
C#---5-5-5-5-5-5----------|
Ab---3-3-3-3-3-3----------|
Eb------------------------|

Solo: play this pretty fast
eb-----------------------------------------------------------------------|
Bb---5-----5----5-----5-------8----8----8----8------8-----8-----10-------|
F#-----5-----5----5-----5-------7----7----7----7------9-----9------9-----|
C#-5-----5-----7----7-------9-----9----9----9-----10----10----10-----10--|
Ab-----------------------------------------------------------------------|
Eb-----------------------------------------------------------------------|

eb------------------------------------------8----8----8-----8-------|
Bb--10--------12------12------12-----12-------8----8----10----10/12-|
F#-----9---------12------12------12----12--9----9----9-----9--------|
C#----------12------12------12------12------------------------------|
Ab------------------------------------------------------------------|
Eb------------------------------------------------------------------|

eb--10------10------10------10--------12------12------12------12----|
Bb-----12------12------12------12--------13------13------13------13-|
F#--------12------12------12--------12------12------14------14------|
C#------------------------------------------------------------------|
Ab------------------------------------------------------------------|
Eb------------------------------------------------------------------|

eb------15-------15------17-------19--------|
Bb---------15-------15------15-------16-----|
F#--/16-------16-------16------16-----------|
C#------------------------------------------|
Ab------------------------------------------|
Eb------------------------------------------|

Outro
eb------------------------------------------|
Bb------------------------------------------|
F#------------------------------------------|
C#--2-2-2-2-2-2--3-3-3-3-3-3--5-5-5-5-5-5---|
Ab--2-2-2-2-2-2--3-3-3-3-3-3--5-5-5-5-5-5---|
Eb--0-0-0-0-0-0--1-1-1-1-1-1--3-3-3-3-3-3---|

then play the intro again and end on a C chord
eb--0---|
Bb--1---|
F#--0---|
C#--2---|
Ab--3---|
Eb------|

song order:
intro x2
verse x1
intro x1
verse x4
pre-chorus x4
chorus x1
lead into solo x8
solo x2
outro x2
intro x2
-------------------------------------------------------------------------
2.No One Else

intro: this is kinda tricky but it sounds exactly like the recording
e--------------------------------------------|
B--------------------------------------------|
G--------------------------------------------|
D---9-9-9-9-9-9-11-11-11-6-6-6-6-6-4---4-----|
A---7-7-7-6-6-6----------------------7-------|
E----------------9--9--9-7-7-7-7-5-5-5-5-----|

verse:
e---------------------------------------------|
B---------------------------------------------|
G---------------------------------------------|
D---------------------------------------------|
A--22222222--7777-7777-44444444/99999999------|
E--00000000--5555-4444-22222222/77777777------|

Pre-Chorus:
e----------------------------------------------|
B----------------------------------------------|
G----------------------------------------------|
D--6666666------------66666666-----------------|
A--4444444--44444444--44444444--444--666--99---|
E-----------22222222------------222--444--77---|

Chorus:
e--------------------------------------------|
B--------------------------------------------|
G--------------------------------------------|
D------------44444444--66666666--------------|
A--22222222--22222222--44444444--77777777----|
E--00000000----------------------55555555----|

intro

verse

chorus

Bridge:
e----------------------------------------------|
B----------------------------------------------|
G----------------------------------------------|
D----------------------------------------4-----|
A--66666666--77777777--66666666--77--66--2-----|
E--44444444--55555555--44444444--55--44--------|

Solo:
e---------------------------------------------------------|
B--12-12-12-12-12-9-9-9-5-5-5-5-5-------------------------|
G-----------------------------------------------------4---|
D--9--9--9--9--9--6-6-6-2-2-2-2-2------2-2-4br-2-4-4b---4-|
A----------------------------------4-4--------------------|
E---------------------------------------------------------|

e-------------------------9-9-9----------------12-12-12-9-|
B--7-7-12-12-12-9-9-9-9-9-------10-10-10-10-10------------|
G-------------------------6-6-6----------------9--9--9--6-|
D--4-4-9--9--9--6-6-6-6-6-------7--7--7--7--7-------------|
A---------------------------------------------------------|
E---------------------------------------------------------|

e--------7---------------------|
B---------------9h10-9/7-9-----|
G--6-8-9-----------------------|
D------------------------------|
A------------------------------|
E------------------------------|

song order:
intro x1
verse x2
pre-chorus x1
chorus x4
intro x1
verse x2
pre-chorus x1
chorus x4
bridge x2
solo x1
pre-chorus x1
chorus x4
intro x1
----------------------------------------------------------------------------

3.The World has Turned and Left Me Here

intro:play it really fast
eb--------------------------------------------------------|
Bb------0-----------------0----------0---------------0----|
F#----0-----0------0--------0------0----0------0-------0--|
C#---------------4----4----------------------2----2-------|
Ab--3----------5--------5--------2---------3-------3------|
Eb--------------------------------------------------------|

chorus:
eb--------------------------------------------------|
Bb--------------------------------------------------|
F#--------------------------------------------------|
C#--5-5--5--4-4-4-4-4-4--4-4--4---2-2-2-2-2-2-------|
Ab--5-5--5--5-5-5-5-5-5--2-2--2---3-3-3-3-3-3-------|
Eb--3-3--3--5-5-5-5-5-5--2-2--2---3-3-3-3-3-3-------|

Verse:
eb----------------------------------------------------------------------|
Bb----------------------------0----------------0--------------0---------|
F#--------7-----------------0-----0----------2----2---------0-----0-----|
C#------5-----5----7------2---------2------2--------2-----2---------2---|
Ab----7---------7-------3----------------0--------------3-------------3-|
Eb--0-------------------------------------------------------------------|

Pre-Chorus:
eb----------------------------------------------------------------------|
Bb----------------------------------------------------------------------|
F#--4-4-4-4-4-4-4-4--5-5-5-5-5-5-5-5--4-4-4-4-4-4-4-4--5-5-5-5-7-7-7-7--|
C#--4-4-4-4-4-4-4-4--5-5-5-5-5-5-5-5--4-4-4-4-4-4-4-4--5-5-5-5-7-7-7-7--|
Ab--2-2-2-2-2-2-2-2--3-3-3-3-3-3-3-3--2-2-2-2-2-2-2-2--3-3-3-3-5-5-5-5--|
Eb----------------------------------------------------------------------|

Solo:
eb-------------------------------0---0---0---0---0------------------|
Bb-----------------------------3---3---3---3---3---3---1--0h1--0~---|
F#--0---0b----/4---4---4-4-4----------------------------------------|
C#------------------------------------------------------------------|
Ab------------------------------------------------------------------|
Eb------------------------------------------------------------------|

eb------------------------------------------------------------------------|
Bb--10--8--7~---7------10--8--7---7/15-15-15p12-15p12-15b----12-----------|
F#--------------------------------------------------------------14b-12----|
C#------------------9--------------------------------------------------14-|
Ab------------------------------------------------------------------------|
Eb------------------------------------------------------------------------|

eb------------------------------------------|
Bb--------------12-----------12-------------|
F#-----------12----14-14b----12-------------|
C#--14-14-14--------------14----14-14-14----|
Ab------------------------------------------|
Eb------------------------------------------|

Outro:
eb-----------------------------------------------|
Bb-------------------------7-7-7-----------------|
F#--12-12-12--11-11-11-9-7-------9-9/7--5-5-5----|
C#-------------------------4-4-4-----------------|repeat once
Ab--10-10-10--9--9--9--7-5-------7-7/5--3-3-3----|
Eb-----------------------------------------------|

eb----------------------------------------------|
Bb----------------------------------------------|
F#--12-12-12-14-14-14-14-14-14-14-14bbbbbb------|
C#----------------------------------------------|
Ab--10-10-10-12-12-12-12-12-12-12-12bbbbbb------|
Eb----------------------------------------------|

song order:
intro x4
chorus x4
verse x2
pre-chorus x1
chorus x4
solo x1
outro x1
intro x3
----------------------------------------------------------------------------

4.Buddy Holly

Verse:
eb----------------------------------------------------|
Bb----------------------------------------------------|
F#----------------------------------------------------|
C#--4-4-4-4-4-4-4-4--4-4-4-4-4-4/7-7--7-7-7-7-7-7-7-7-|
Ab--4-4-4-4-4-4-4-4--4-4-4-4-4-4/7-7--7-7-7-7-7-7-7-7-|
Eb--2-2-2-2-2-2-2-2--2-2-2-2-2-2/4-4--5-5-5-5-5-5-5-5-|

Pre-chorus:
eb----5---5---5----5-----4-----2---2---2------|
Bb--7---7---7---7--7/--5---5/----2---2--------|
F#--------------------------------------------|
C#--------------------------------------------|
Ab--------------------------------------------|
Eb--------------------------------------------|

Pre-chorus:last time end with this
eb----5---5----5----5-----------------|
Bb--6---6---6----6--------------------|
F#------------------------------------|
C#------------------------------------|
Ab------------------------------------|
Eb------------------------------------|

Chorus:
eb-------------------------------------------|
Bb-------------------------------------------|
F#-----------7777-9999----------7777-9999----|
C#--77777777-7777-9999-77777777-7777-9999----|
Ab--77777777-5555-7777-77777777-5555-7777----|
Eb--55555555-----------55555555--------------|

eb------------------------------------------------|
Bb------------------------------------------------|
F#------------------------77-9999-----------------|
C#--44444444/77-99-777777-77-9999-777----777-7----|
Ab--44444444/77-99-777777-55-7777-777-77-777-7----|
Eb--22222222/55-77-555555---------555-00-555-5----|

Interlude riff:
eb--------2h4--2----------------------2h4--2----------|
Bb--2-3-2---------2-0----2-2---2h3-2---------2p0------|
F#---------------------2--------------------------2---|
C#----------------------------------------------------|
Ab----------------------------------------------------|
Eb----------------------------------------------------|

Bridge: (kinda tricky to play)
eb-----------------------------------------------------|
Bb-----------------------------------------------------|
F#------------------------------4-6-4------------------|
C#--7-7-7-----4-----4--xx-4-----4-6-4----4-------------|
Ab--7-7-7-----4-----4--xx-4--0--2-4-2--0-4-------------|
Eb--5-5-5--0--2--0--2--xx-2--------------2-------------|

Solo:
eb-------------------------------/14--14-16-16-17-17/19-19-19-19--17-17---|
Bb------------------------------------------------------------------------|
F#--11b--11~--9------------------/11--11-13-13-14-14/16-16-16-16--14-14---|
C#---------------12--11/12--7~--------------------------------------------|
Ab------------------------------------------------------------------------|
Eb------------------------------------------------------------------------|

eb------------------------------------------------------------------------|
Bb--------14-14--------------------------------------14b-14---------------|
F#--------14-14-------16b--16-14~--------14-14--------------14~-----------|
C#--14h16-------16-14--------------14-16-14-14-16-14----------------14h16-|
Ab-------------------------------------------------------------14-16------|
Eb------------------------------------------------------------------------|

eb-------------------------17----17--19--19br19p17---------|
Bb---------14h16p14~----------18-------------------18--17~-|
F#--14-16--------------------------------------------------|
C#---------------------------------------------------------|
Ab---------------------------------------------------------|
Eb---------------------------------------------------------|

song order:
verse x2
pre-chorus x1
chorus x1
interlude x1
verse x2
pre-chorus x1
chorus x1
bridge x4
solo x1
chorus x2
----------------------------------------------------------------------------
5.Undone (the sweater song)

Intro:play it slow
eb----------------------------------------------------|
Bb----------0-----------0-----------0-----------0-----|
F#--------3----------3-----------5------------3-------|
C#-----2----------2-----------4------------2----------|
Ab-------------3-----------5------------3-------------|
Eb--3-------------------------------------------------|

Verse
eb--3-3-3-3-0-0-0-0-2-2-2-2-0-0-0-0----|
Bb--3-3-3-3-1-1-1-1-3-3-3-3-1-1-1-1----|
F#--0-0-0-0-0-0-0-0-2-2-2-2-0-0-0-0----|
C#--0-0-0-0-2-2-2-2-0-0-0-0-2-2-2-2----|
Ab--2-2-2-2-3-3-3-3---------3-3-3-3----|
Eb--3-3-3-3----------------------------|

Chorus:
eb------------------------------------|
Bb------------------------------------|
F#----------5-5-5-5-7-7-7-7-5-5-5-5---|
C#--5-5-5-5-5-5-5-5-7-7-7-7-5-5-5-5---|
Ab--5-5-5-5-3-3-3-3-5-5-5-5-3-3-3-3---|
Eb--3-3-3-3---------------------------|

Solo:
eb------------------------------------------------------------------|
Bb-----------------------------------------------3-3b4r-------------|
F#--3-3-3---3~--3----3-3-3---3~-3---3-3-3---3-5--------5-3/2-3------|
C#--------6-------5--------5------5-------5--------------------5-3--|
Ab------------------------------------------------------------------|
Eb------------------------------------------------------------------|

eb------------------------------------------------------------------------|
Bb----------------------------------6b8r-3--------------------------------|
F#------3-3b-----5b77-5-3----5b-5-3--------5-3~--3-3-3/5-5-5/7-7-7/8-8/10-|
C#--3-5------5-3---------5-3----------------------------------------------|
Ab------------------------------------------------------------------------|
Eb------------------------------------------------------------------------|

eb---------------------------------------------------------------------|
Bb---------------------------------------------------15----15----15----|
F#--10/12-12/14-14/15-15/17-17-17-15-14-12-12-10-10-----12----------12-|
C#------------------------------------------------------------12-------|
Ab---------------------------------------------------------------------|
Eb---------------------------------------------------------------------|

eb----------------15b17--15p13--18b20~-18-17-|
Bb--15---------------------------------------|
F#-----12-12-10~-----------------------------|
C#-------------------------------------------|
Ab-------------------------------------------|
Eb-------------------------------------------|

Fill during chorus after solo:
eb-------------------------------------|
Bb--15~--13p12-------------------------|
F#-------------14p12--14b-12-----------|
C#-------------------------------------|
Ab-------------------------------------|
Eb-------------------------------------|

Outro:
eb-------------------------------------------------------------------------|
Bb-------------------------------------------------------------------------|
F#--12-12-12-12-12-12-12-12-12-12-11-11-9-9-9/7-7-7-7/12-12-12-12-12-12-12-|
C#-------------------------------------------------------------------------|
Ab--10-10-10-10-10-10-10-10-10-10-9--9--7-7-7/5-5-5-5/10-10-10-10-10-10-10-|
Eb-------------------------------------------------------------------------|

eb----------------------------------------------------------------------|
Bb----------------------------------------------------------------------|
F#--11-11-9-9-9/7-7-7-7-7-7-7-7/19-19-19-19-19-17-17-16-16-16-17/14-14--|
C#----------------------------------------------------------------------|
Ab--9--9--7-7-7/5-5-5-5-5-5-5-5/17-17-17-17-17-15-15-14-14-14-15/12-12--|
Eb----------------------------------------------------------------------|

eb--------------------------------------------------------------------|
Bb--------------------------------------------------------------------|
F#--16/12-12-12-12-12-12-12-12-12-12-14-14-14-14-15-15-15-15-15-15-15-|
C#--------------------------------------------------------------------|
Ab--14/10-10-10-10-10-10-10-10-10-10-12-12-12-12-13-13-13-13-13-13-13-|
Eb--------------------------------------------------------------------|

eb--/18-18-18-18-18-18-18-18-18-18-18-18-18-18/20-20-20-20-20-20-20-20-20-|
Bb------------------------------------------------------------------------|
F#--/15-15-15-15-15-15-15-15-15-15-15-15-15-15/17-17-17-17-17-17-17-17-17-|
C#------------------------------------------------------------------------|
Ab------------------------------------------------------------------------|
Eb------------------------------------------------------------------------|

eb--18-18-18-18-18-18-18-18-18-18-18-18-20-20-20-20-20-20-20-20-20-|
Bb-----------------------------------------------------------------|
F#--15-15-15-15-15-15-15-15-15-15-15-15-17-17-17-17-17-17-17-17-17-|
C#-----------------------------------------------------------------|
Ab-----------------------------------------------------------------|
Eb-----------------------------------------------------------------|

eb--20bbbbbbbbbbbbbbbbbbbbbbbbbbbbbbbbbbb---|
Bb------------------------------------------|
F#--17bbbbbbbbbbbbbbbbbbbbbbbbbbbbbbbbbbbb--|
C#------------------------------------------|
Ab------------------------------------------|
Eb------------------------------------------|

song order:
intro x8
verse x2
chorus x1
intro x2
verse x2
chorus x4
solo x1
chorus x4
outro x1
intro x8
----------------------------------------------------------------------------

6.Surf Wax America

Intro/Verse pt.1:play this very fast
eb-----------------------------------------------------|
Bb----3--------1-------------------0-------------------|
F#------0--------0---------0---------0-----------------|
C#--4-----0--2-----------0-------------0---------------|
Ab------------------3--2-------------------------------|
Eb-----------------------------3-----------------------|

Verse part.2
eb----------------------------------------|
Bb----------------------------------------|
F#--7-7-7-7-------------------------------|
C#--7-7-7-7-7-7-7-7-5-5-5-5-5-5-5-5-------|
Ab--5-5-5-5-7-7-7-7-5-5-5-5-5-5-5-5-------|
Eb----------5-5-5-5-3-3-3-3-3-3-3-3-------|

Chorus
eb------------------------------------|
Bb------------------------------------|
F#--5-5-5-5-5-5-5-5-------------------|
C#--5-5-5-5-5-5-5-5-5-5-5-5-5-5-5-5---|
Ab--3-3-3-3-3-3-3-3-5-5-5-5-5-5-5-5---|
Eb------------------3-3-3-3-3-3-3-3---|

Bridge:
eb------------------------------------------|
Bb------------------------------------------|
F#--2-2-2-2-5-5-5-5-------------------------|
C#--2-2-2-2-5-5-5-5-5-5-5-5-5-5-5-5---------|
Ab--0-0-0-0-3-3-3-3-5-5-5-5-5-5-5-5---------|
Eb------------------3-3-3-3-3-3-3-3---------|

Outro:
eb--------------------------|
Bb--------------------------|
F#--555555-5----------------|
C#--555555-5-555555--5~-----|
Ab--333333-2-555555--5~-----|
Eb-----------333333--3~-----|

song order:
intro x6
Verse pt.2 x4
chorus x4
intro x2
verse pt.2 x4
bridge x8
outro x2
----------------------------------------------------------------------------

7.Say it ain't so

intro:
eb---------4-x------------------------5-x--0----------------|
Bb--4h5-5--5-x--0----------0----------5-x--0----------------|
F#--4---4--4-x--5--------5----5/6--6--6-x--1----------9-----|
C#--4h6-6-------6------6------6/7--7-------2----------9-----|
Ab--4---4-------6----6--------6/7--7-------2-----9h11-------|
Eb--------------4--4----------4/5--5-------0---0------------|

eb---------4-x------------------------5-x--0--|
Bb--4h5-5--5-x--0----------0----------5-x--0--|
F#--4---4--4-x--5--------5----5/6--6--6-x--1--|
C#--4h6-6-------6------6------6/7--7-------2--|
Ab--4---4-------6----6--------6/7--7-------2--|
Eb--------------4--4----------4/5--5-------0--|

verse:
eb--4--3-3-3--5--2-2-2------|
Bb--5--3-3-3--5--3-3-3------|
F#--6--4-4-4--6--2-2-2------|
C#--------------------------|
Ab--------------------------|
Eb--------------------------|

then play intro again but add this at the end
eb----------------------------------------------|
Bb--------------9----10/12--10--9----------9----|
F#------9--9----9----11/13--11--9h11p9-----9--9-|
C#------9--9h11---11--------------------11----9-|
Ab--11------------------------------------------|
Eb----------------------------------------------|

Chorus
eb--------------------|
Bb--------------------|
F#--66----------------|
C#--66-66--77--2222---|
Ab--44-66--77--2222---|
Eb-----44--55--0000---|

play intro again but add this at the end
eb-----------7--11--7--9---7--------------------------------|
Bb--------7--------------9---7h9---7------------------------|
F#-----8-------------------------9---9b11-8h9-6-6h8-4--6----|
C#--9----------------------------------------------------6--|
Ab----------------------------------------------------------|
Eb----------------------------------------------------------|

in the next chorus play this
eb----------------------------|
Bb------4b6----4b6------------|
F#--66------------------------|
C#--66------66-----77--222----|
Ab--44------66-----77--222----|
Eb----------44-----55--000----|

Bridge:
eb----------------------------------|
Bb----------------------------------|
F#--4-4--4-4-4--4-------------------|
C#--4-4--4-4-4--4-2-2--2-5-5--5-----|
Ab--2-2--2-2-2--2-2-2--2-5-5--5-----|
Eb----------------0-0--0-3-3--3-----|

solo:
eb---------------------------------------------------------------------------|
Bb--19b21r-17-------------------------------19b21r--17-----------------------|
F#------------19--18-20-18--18b20r--16-----------------20--18-20-18--18b20r--|
C#-------------------------------------18------------------------------------|
Ab---------------------------------------------------------------------------|
Eb---------------------------------------------------------------------------|

eb---------------------------16---------------------16----------16b17rp14h16-|
Bb------------------------17----19-17-16~--------17----19-17-16--------------|
F#--16-18b21-18b21--16h18------------------16h18-----------------------------|
C#---------------------------------------------------------------------------|
Ab---------------------------------------------------------------------------|
Eb---------------------------------------------------------------------------|

song order:
intro x4
verse x2
intro x2
chorus x4
intro x2
chorus x4
bridge x4
solo x1
----------------------------------------------------------------------------

8.In the Garage

intro:kinda slow
eb------------------------------0--------------------------------------|
Bb--0----3-------------0--1-----------0-----------0-----3----------0---|
F#-----0----0--2-------------2-----2-----0-----0-----0-----0--2------2-|
C#----------------4-------------------------2-------------------4------|
Ab-------------------5-------------------------------------------------|
Eb---------------------------------------------------------------------|

eb----------------|
Bb----------------|
F#--0----0--0--0--|
C#----2-----------|
Ab-------2--0-----|
Eb-------------3--|

verse pt.1:
eb-----------------------------------|
Bb-----------------------------------|
F#--5-5-5-5-5-5-7-7-9-9-9-9-9-9-9-9--|
C#--5-5-5-5-5-5-7-7-9-9-9-9-9-9-9-9--|
Ab--3-3-3-3-3-3-5-5-7-7-7-7-7-7-7-7--|
Eb-----------------------------------|

verse pt.2:
eb----------------------------------------------|
Bb--------------8-----8---------8-----8---------|
F#----------------7-----7---------7-----7---7---|
C#-------7----------9-----7---------9-----9-----|
Ab--55---5----------------5---------------------|
Eb--33------0----------------0------------------|

chorus:
eb-----------------------------------------------------------------|
Bb-----------------------------------------------------------------|
F#-----------------------------------------------------------------|
C#----------0-0-0-0-2-2-2-2-----------------0-0-0-0-5-5-5----------|x2
Ab--5-5-5-5-0-0-0-0-0-0-0-0-2-2-2-2-5-5-5-5-0-0-0-0-3-3-2-5-5-5-5--|
Eb--3-3-3-3-----------------0-0-0-0-3-3-3-3---------------3-3-3-3--|

eb----------------|
Bb----------------|
F#----------------|
C#----------------|
Ab--7~---7~---5~--|
Eb--5~---5~---3~--|

Solo:
eb--------------------------------------------------------------------------|
Bb--5------7-----9--------------12---------------15--------17/--3/5-5-5-5-5-|
F#--7b9----9b11--11b13---14b16-----16b18---17b19-----19b21------------------|
C#--------------------------------------------------------------------------|
Ab--------------------------------------------------------------------------|
Eb--------------------------------------------------------------------------|

eb---------/19\--------/18\-----------------------------------------------|
Bb--7--9---------/18\---------3/5-5-5-5-5-5--7--8--/15--13-12h13p12-------|
F#------------------------------------------------------------------14-12-|
C#------------------------------------------------------------------------|
Ab------------------------------------------------------------------------|
Eb------------------------------------------------------------------------|

eb--------------------------------------------------------------------------|
Bb--/15-13-12h13p12--------15---12-15b17--15b17r12---------------------15---|
F#------------------14-12--------------------------15-14-12----12-14/16--16-|
C#----------------------------------------------------------14--------------|
Ab--------------------------------------------------------------------------|
Eb--------------------------------------------------------------------------|

eb--------15-17b19-17b19r-15-----|
Bb--15/17--------------------17--|
F#-------------------------------|
C#-------------------------------|
Ab-------------------------------|
Eb-------------------------------|

song order:
intro x1
verse pt.1 x4
verse pt.2 x1
chorus x1
intro x1
verse pt.1 x4
verse pt.2 x1
chorus x1
solo x1
chorus x2
----------------------------------------------------------------------------

9.Holiday

intro:
eb-----------------------------------------------------------------7------|
Bb------4-5-4h5p4---7b9---7b9rp5--7b9~--7b9-7--5~---7-5--9b10rp7---10b12--|
F#--4h6-----------6-------------------------------------------------------|
C#------------------------------------------------------------------------|
Ab------------------------------------------------------------------------|
Eb------------------------------------------------------------------------|

eb-----------------------------------------------------------------------|
Bb--8b9r--10b12-10b12-10b12-10b12-10b12-10b11-10-10-10-10-9-10-12b13-12--|
F#-----------------------------------------------------------------------|
C#-----------------------------------------------------------------------|
Ab-----------------------------------------------------------------------|
Eb-----------------------------------------------------------------------|

verse:
eb----------------------------------|
Bb----------------------------------|
F#----------------------------------|
C#----------------------------------|
Ab--22222-4-666666-777777-999-7-9-7-|
Eb--00000-2-444444-555555-777-5-7-5-|

chorus pt.1:
eb-------------------------------------------------------------|
Bb-------------------------------------------------------------|
F#-------------------------------------------------------------|
C#--9~----------333333-222222-9~----------333333-222222-9~-----|
Ab--7~-6~-3-333-111111-000000-7~-6~-3-333-111111-000000-7~-6~--|
Eb-----4~-1-111------------------4~-1-111------------------4~--|

chorus pt.2:
eb-------------------|
Bb-------------------|
F#-------------------|
C#--------4-55555-4--|
Ab--22222-2-33333-2--|
Eb--00000------------|

interlude:
eb----------------------------------------------|
Bb----5-4-5-4-5------4-5------4-5--4h5p4--------|
F#--4-----------4--------6---------------6-4----|
C#--------------------------------------------7-|
Ab----------------------------------------------|
Eb----------------------------------------------|

then theres the goofy bridge part where you just hear the bass

then there this riff:
eb------------------------|
Bb------------------------|
F#------------------------|
C#--99999-----------------|
Ab--77777-9-1010101010-9--|
Eb--------7-8-8-8-8-8--7--|

Last verse:something similar to this
eb----0---0---0------0-----0--------------------------|
Bb--0---4---4---0--4---2-4---4-2-0----------9-7-------|
F#---------------------------------2-1--9-9-----9-8---|
C#----------------------------------------------------|
Ab----------------------------------------------------|
Eb----------------------------------------------------|

just figure out the order. its not that hard.

--------------------------------------------------------------------------

10.Only in Dreams

intro:
eb------------------------------------------|
Bb--3-3-3-3-3-3-3-3-3-3-3-3-----------------|
F#--0-0-0-0-0-0-0-0-2-2-2-2-5-4-5-4\--------|
C#--0-0-0-2-2-2-2-2-2-2-2-2-4-4-4-4\--------|
Ab--2-2-2-3-3-3-3-3-0-0-0-0-5-5-5-5\--------|
Eb------------------------------------------|

eb----------------------------------------------------------------------|
Bb-------------------------------------------------0----0---------------|
F#--------------<12>-----0---0-----0---0------0------------0----0-------|
C#----------<12>-------0-------1b2--------6b7---10---10-------0----1b2--|
Ab------<12>------------------------------------------------------------|
Eb--<12>----------------------------------------------------------------|

eb-----------------------------|
Bb-------------------0---0-----|
F#--0---0-------0--------------|
C#---------6b7-----8---8-------|
Ab-----------------------------|
Eb-----------------------------|

verse is the same as the first part of the intro

chorus:
eb----------------------------------------|
Bb----------------------------------------|
F#----------------------------------------|
C#--9-9-7-5-5-5-5-5-5--10-10-9-7-7-7-7-7--|
Ab--9-9-7-5-5-5-5-5-5--10-10-9-7-7-7-7-7--|
Eb--7-7-5-3-3-3-3-3-3--8--8--7-5-5-5-5-5--|

eb-----------|
Bb-----------|
F#--5-5-6-7--|
C#--5-5-6-7--|
Ab--3-3-4-5--|
Eb-----------|

outro:
eb-------------------------------------------------------------------------|
Bb-------------------------------------------------------------------------|
F#--4-4-4/9-9-12-12-12\2-2-2-2/7-7-5-5-4-4-4/12-12-12-12-12\5-5-5-5/11-11--|
C#-------------------------------------------------------------------------|
Ab--2-2-2/7-7-10-10-10\0-0-0-0-5-5-3-3-2-2-2/10-10-10-10-10\3-3-3-3/9--9---|
Eb-------------------------------------------------------------------------|

eb-------------------------------------------------------------------------|
Bb-------------------------------------------------------------------------|
F#--9-9\4-4-4/12-12-12-12-12\2-2-2-2/7-7-5-5-4-4-4/12-12-12-12-12\5-5-5-5/-|
C#-------------------------------------------------------------------------|
Ab--7-7\2-2-2/10-10-10-10-10\0-0-0-0-5-5-3-3-2-2-2/10-10-10-10-10\3-3-3-3/-|
Eb-------------------------------------------------------------------------|

eb---------------|
Bb---------------|
F#---------------|
C#--11-11-9-9-7--|
Ab---------------|
Eb--9--9--7-7-5--|

eb---7-------------|
Bb-----8-----------|
F#-------7---------|
C#-----------------|x6
Ab-----------------|
Eb-----------------|

eb--8--------------|
Bb----8------------|
F#------9----------|
C#-----------------|x3
Ab-----------------|
Eb-----------------|

just play those a couple times then play this a bunch of times


eb-------------------------------------------|
Bb-------------------------------------------|
F#--1111111111111111111111-12-12-12-12-12----|
C#-------------------------------------------|
Ab--9-9-9-9-9-9-9-9-9-9-9--10-10-10-10-10----|
Eb-------------------------------------------|

from there it kinda goes crazy and they play a bunch of octave chords.

hopefully this tab will be helpful.  It took me like 2 months.

ROCK ON DUDES
Tap to rate this tab
# A B C D E F G H I J K L M N O P Q R S T U V W X Y Z