Song name
# A B C D E F G H I J K L M N O P Q R S T U V W X Y Z

Weezer - Susanne tab

Help us improve GuitareTab! Take a short survey!
-------------------------------------------------------------------------------
			     Susanne - Weezer
-------------------------------------------------------------------------------

Tabbed by: cjpm105

Tuning: Guitar 1 - Standard, half step down.
        Guitar 2 - Standard, half step down.

Key
/  slide up
\  slide down
~  sustain
v  vibrato

Guitars 1 and 2 double each other and play the same thing during the chorus, verses, and 
bridge.

Intro
eb|--------------------------------------------------------------|
Bb|--------------------------------------------------------------|
Gb|--------------------------------------------------------------|
Db|-------------------------------------------(7)----------------|
Ab|------------------------------volume swell-(7)----------------|
Eb|-------------------------------------------(5)----------------|

Chorus
eb|--------------------------------------------------------------------------|
Bb|--------------------------------------------------------------------------|
Gb|--------------------------------------------------------------------------|
Db|--7--7--7--7--7--7--7--7--7--7--7--7--7--7--7--7--7--7--9--9--9--9--9--9--|
Ab|--7--7--7--7--7--7--7--7--7--7--7--7--5--5--5--5--5--5--7--7--7--7--7--7--|
Eb|--5--5--5--5--5--5--5--5--5--5--5--5--5--5--5--5--5--5--7--7--7--7--7--7--|

eb|--------------------------------------------------------------------------|
Bb|--------------------------------------------------------------------------|
Gb|--------------------------------------------------------------------------|
Db|--4--4--4--4--4--4--4--4--4--4--4--4--7--7--7--7--7--7--7--7--7--7--7--7--|
Ab|--4--4--4--4--4--4--4--4--4--4--4--4--7--7--7--7--7--7--5--5--5--5--5--5--|
Eb|--2--2--2--2--2--2--2--2--2--2--2--2--5--5--5--5--5--5--5--5--5--5--5--5--|

eb|--------------------------------------------------------------------------|
Bb|--------------------------------------------------------------------------|
Gb|--------------------------------------------------------------------------|
Db|--4--4--4--4--4--4--6--6--6--6--6--6--7--7--7--7--7--7--9--9--9--9--9--9--|
Ab|--4--4--4--4--4--4--4--4--4--4--4--4--7--7--7--7--7--7--9--9--9--9--9--9--|
Eb|--2--2--2--2--2--2--4--4--4--4--4--4--5--5--5--5--5--5--7--7--7--7--7--7--|

eb|--------------------------------------------------------------------------|
Bb|--------------------------------------------------------------------------|
Gb|--------------------------------------------------------------------------|
Db|--7--7--7--7--7--7--7--7--7--7--7--7--7--7--7--7--7--7--9--9--9--9--9--9--|
Ab|--7--7--7--7--7--7--7--7--7--7--7--7--5--5--5--5--5--5--7--7--7--7--7--7--|
Eb|--5--5--5--5--5--5--5--5--5--5--5--5--5--5--5--5--5--5--7--7--7--7--7--7--|

Verse
eb|--------------------------------------------------------------------------|
Bb|--------------------------------------------------------------------------|
Gb|--------------------------------------------------------------------------|
Db|--4--4--4--4--4--4--4--4--4--4--4--4--9--9--9--9--9--9--7--7--7--7--7--7--|
Ab|--4--4--4--4--4--4--4--4--4--4--4--4--9--9--9--9--9--9--7--7--7--7--7--7--|
Eb|--2--2--2--2--2--2--2--2--2--2--2--2--7--7--7--7--7--7--5--5--5--5--5--5--|

eb|--------------------------------------------------------------------------|
Bb|--------------------------------------------------------------------------|
Gb|--------------------------------------------------------------------------|
Db|--7--7--7--2--2--2--4--4--4--6--6--6--7--7--7--7--7--7--6--6--6--6--6--6--|
Ab|--7--7--7--2--2--2--4--4--4--6--6--6--7--7--7--7--7--7--7--7--7--7--7--7--|
Eb|--4--4--4--0--0--0--2--2--2--4--4--4--5--5--5--5--5--5--5--5--5--5--5--5--|

eb|--------------------------------------------------------------------------|
Bb|--------------------------------------------------------------------------|
Gb|--------------------------------------------------------------------------|
Db|--4--4--4--4--4--4--4--4--4--4--4--4--9--9--9--9--9--9--7--7--7--7--7--7--|
Ab|--4--4--4--4--4--4--4--4--4--4--4--4--9--9--9--9--9--9--7--7--7--7--7--7--|
Eb|--2--2--2--2--2--2--2--2--2--2--2--2--7--7--7--7--7--7--5--5--5--5--5--5--|

eb|--------------------------------------|
Bb|--------------------------------------|
Gb|--------------------------------------|
Db|--7--7--7--2--2--2--4--4--4--6--6--6--|
Ab|--7--7--7--2--2--2--4--4--4--6--6--6--|
Eb|--4--4--4--0--0--0--2--2--2--4--4--4--|

Second Chorus
eb|--------------------------------------------------------------------------|
Bb|--------------------------------------------------------------------------|
Gb|--------------------------------------------------------------------------|
Db|--7--7--7--7--7--7--7--7--7--7--7--7--7--7--7--7--7--7--9--9--9--9--9--9--|
Ab|--7--7--7--7--7--7--7--7--7--7--7--7--5--5--5--5--5--5--7--7--7--7--7--7--|
Eb|--5--5--5--5--5--5--5--5--5--5--5--5--5--5--5--5--5--5--7--7--7--7--7--7--|

eb|--------------------------------------------------------------------------|
Bb|--------------------------------------------------------------------------|
Gb|--------------------------------------------------------------------------|
Db|--4--4--4--4--4--4--4--4--4--4--4--4--7--7--7--7--7--7--7--7--7--7--7--7--|
Ab|--4--4--4--4--4--4--4--4--4--4--4--4--7--7--7--7--7--7--5--5--5--5--5--5--|
Eb|--2--2--2--2--2--2--2--2--2--2--2--2--5--5--5--5--5--5--5--5--5--5--5--5--|

eb|--------------------------------------------------------------------------|
Bb|--------------------------------------------------------------------------|
Gb|--------------------------------------------------------------------------|
Db|--4--4--4--4--4--4--6--6--6--6--6--6--7--7--7--7--7--7--9--9--9--9--9--9--|
Ab|--4--4--4--4--4--4--4--4--4--4--4--4--7--7--7--7--7--7--9--9--9--9--9--9--|
Eb|--2--2--2--2--2--2--4--4--4--4--4--4--5--5--5--5--5--5--7--7--7--7--7--7--|

eb|--------------------------------------------------------------------------|
Bb|--------------------------------------------------------------------------|
Gb|--------------------------------------------------------------------------|
Db|--7--7--7--7--7--7--7--7--7--7--7--7--7--7--7--7--7--7--9--9--9--9--9--9--|
Ab|--7--7--7--7--7--7--7--7--7--7--7--7--5--5--5--5--5--5--7--7--7--7--7--7--|
Eb|--5--5--5--5--5--5--5--5--5--5--5--5--5--5--5--5--5--5--7--7--7--7--7--7--|

Second Verse
eb|--------------------------------------------------------------------------|
Bb|--------------------------------------------------------------------------|
Gb|--------------------------------------------------------------------------|
Db|--4--4--4--4--4--4--4--4--4--4--4--4--9--9--9--9--9--9--7--7--7--7--7--7--|
Ab|--4--4--4--4--4--4--4--4--4--4--4--4--9--9--9--9--9--9--7--7--7--7--7--7--|
Eb|--2--2--2--2--2--2--2--2--2--2--2--2--7--7--7--7--7--7--5--5--5--5--5--5--|

eb|--------------------------------------------------------------------------|
Bb|--------------------------------------------------------------------------|
Gb|--------------------------------------------------------------------------|
Db|--7--7--7--2--2--2--4--4--4--6--6--6--7--7--7--7--7--7--6--6--6--6--6--6--|
Ab|--7--7--7--2--2--2--4--4--4--6--6--6--7--7--7--7--7--7--7--7--7--7--7--7--|
Eb|--4--4--4--0--0--0--2--2--2--4--4--4--5--5--5--5--5--5--5--5--5--5--5--5--|

eb|--------------------------------------------------------------------------|
Bb|--------------------------------------------------------------------------|
Gb|--------------------------------------------------------------------------|
Db|--4--4--4--4--4--4--4--4--4--4--4--4--9--9--9--9--9--9--7--7--7--7--7--7--|
Ab|--4--4--4--4--4--4--4--4--4--4--4--4--9--9--9--9--9--9--7--7--7--7--7--7--|
Eb|--2--2--2--2--2--2--2--2--2--2--2--2--7--7--7--7--7--7--5--5--5--5--5--5--|

eb|--------------------------------------|
Bb|--------------------------------------|
Gb|--------------------------------------|
Db|--7--7--7--2--2--2--4--4--4--6--6--6--|
Ab|--7--7--7--2--2--2--4--4--4--6--6--6--|
Eb|--4--4--4--0--0--0--2--2--2--4--4--4--|

Bridge
eb|----------------------------------------------------------------------------|
Bb|----------------------------------------------------------------------------|
Gb|----------------------------------------------------------------------------|
Db|--7--7--7--7--7--7--9--9--9--9--9--9--7----7----7----7----9--9--9--9--9--9--|
Ab|--5--5--5--5--5--5--7--7--7--7--7--7--7----5----7----5----7--7--7--7--7--7--|
Eb|--5--5--5--5--5--5--7--7--7--7--7--7--5----5----5----5----7--7--7--7--7--7--|

eb|----------------------------------------------------------------------------|
Bb|----------------------------------------------------------------------------|
Gb|----------------------------------------------------------------------------|
Db|--7--7--7--7--7--7--9--9--9--9--9--9--7----7----7----7----9--9--9--9--9--9--|
Ab|--5--5--5--5--5--5--7--7--7--7--7--7--7----5----7----5----7--7--7--7--7--7--|
Eb|--5--5--5--5--5--5--7--7--7--7--7--7--5----5----5----5----7--7--7--7--7--7--|

eb|----------------------------------------------------------------------------|
Bb|----------------------------------------------------------------------------|
Gb|----------------------------------------------------------------------------|
Db|--7--7--7--7--7--7--9--9--9--9/-------7----7----7----7----7--7--7--7--7--7--|
Ab|--5--5--5--5--5--5--7--7--7--7/-------7----5----7----5----5--5--5--5--5--5--|
Eb|--5--5--5--5--5--5--7--7--7--7/-------5----5----5----5----5--5--5--5--5--5--|

eb|--------------------------------------|
Bb|--------------------------------------|
Gb|--------------------------------------|
Db|--9--9--9--9--9--9--9--9--9--9--9--9--|
Ab|--7--7--7--7--7--7--7--7--7--7--7--7--|
Eb|--7--7--7--7--7--7--7--7--7--7--7--7--|

Solo - Guitar 2 plays the verse during the solo
eb|-------------------------------------------------------------------------|
Bb|--------------------------------------------------9----7--9----7--9---7--|
Gb|--6----4--6----4-----4---6---6\9-----7--6--7-----------------------------|
Db|------------------7------------------------------------------------------|
Ab|-------------------------------------------------------------------------|
Eb|-------------------------------------------------------------------------|

eb|---------------------------------12--12-12-12--12--12--12--12--10--------|
Bb|-------------------------------------------------------------------------|
Gb|--9--9--9\11--9----6--6--6\9---------------------------------------------|
Db|-------------------------------------------------------------------------|
Ab|-------------------------------------------------------------------------|
Eb|-------------------------------------------------------------------------|

eb|--9--9--9\10--9------------------------16--------------16-------16-------17v~--|
Bb|------------------12~---------12----12-----12----12-12----12-12----12-12-------|
Gb|-------------------------------------------------------------------------------|
Db|-------------------------------------------------------------------------------|
Ab|-------------------------------------------------------------------------------|
Eb|-------------------------------------------------------------------------------|

Final Chorus
eb|--------------------------------------------------------------------------|
Bb|--------------------------------------------------------------------------|
Gb|--------------------------------------------------------------------------|
Db|--7--7--7--7--7--7--7--7--7--7--7--7--7--7--7--7--7--7--9--9--9--9--9--9--|
Ab|--7--7--7--7--7--7--7--7--7--7--7--7--5--5--5--5--5--5--7--7--7--7--7--7--|
Eb|--5--5--5--5--5--5--5--5--5--5--5--5--5--5--5--5--5--5--7--7--7--7--7--7--|

eb|--------------------------------------------------------------------------|
Bb|--------------------------------------------------------------------------|
Gb|--------------------------------------------------------------------------|
Db|--4--4--4--4--4--4--4--4--4--4--4--4--7--7--7--7--7--7--7--7--7--7--7--7--|
Ab|--4--4--4--4--4--4--4--4--4--4--4--4--7--7--7--7--7--7--5--5--5--5--5--5--|
Eb|--2--2--2--2--2--2--2--2--2--2--2--2--5--5--5--5--5--5--5--5--5--5--5--5--|

eb|--------------------------------------------------------------------------|
Bb|--------------------------------------------------------------------------|
Gb|--------------------------------------------------------------------------|
Db|--4--4--4--4--4--4--6--6--6--6--6--6--7--7--7--7--7--7--9--9--9--9--9--9--|
Ab|--4--4--4--4--4--4--4--4--4--4--4--4--7--7--7--7--7--7--9--9--9--9--9--9--|
Eb|--2--2--2--2--2--2--4--4--4--4--4--4--5--5--5--5--5--5--7--7--7--7--7--7--|

eb|--------------------------------------------------------------------------|
Bb|--------------------------------------------------------------------------|
Gb|--------------------------------------------------------------------------|
Db|--7--7--7--7--7--7--7--7--7--7--7--7--7----7----7----9----9---------------|
Ab|--7--7--7--7--7--7--7--7--7--7--7--7--5----5----5----7----7---------------|
Eb|--5--5--5--5--5--5--5--5--5--5--5--5--5----5----5----7----7---------------|

eb|-------------------------------------------5~--|
Bb|-------------------------------------------5~--|
Gb|-------------------------------------------6~--|
Db|--7--7--7--7--7--7--7--7--7--7--7--7--7----5~--|
Ab|--7--7--7--7--7--7--5--5--5--5--5--5--7----7~--|
Eb|--5--5--5--5--5--5--5--5--5--5--5--5--5----5~--|
Related for Susanne tab