Song name
# A B C D E F G H I J K L M N O P Q R S T U V W X Y Z

Weird Al Yankovic - Eat It tab

If any questions contact me at adrian.mtz96@hotmail.com

e-------------------------------------------------------------|   x2
b-------------------------------------------------------------|
g-------------------------------------------------------------|
d-------10-7---9-7----------------------------10-7--9-7-------|
a-----7-------------10-10------------------7-------------10---|
E-7-8-----------------------------------7-8-------------------|


this power chords are played throughout the chourus except when he is sayin eat it when 
sais eat it you play the intro again
e----------------------------------------------------------------------------|
b----------------------------------------------------------------------------|
g----------------------------------------------------------------------------|
d9--9--9-9-9-9-9-9-9-9---12-12-12-12-12-12-12--5-5-5-5-5-5-5-5--7-7-7-7-7-7--|
a7--7--7-7-7-7-7-7-7-7---10-10-10-10-10-10-10--7-7-7-7-7-7-7-7--9-9-9-9-9-9--|
E----------------------------------------------------------------------------|


BEFORE SOLO
d-7-7-7-7-7-7-7-7-|
a-9-9-9-9-9-9-9-9-|


Solo


E---------------------------------------------------------------------------|
b---------------------------------------------------------------------------|
g -9--12--14,12,14,12,14,12,14--17--15,17,15,17,15,17,15--17,19,17,19,17,19-|
d---------------------------------------------------------------------------|
a---------------------------------------------------------------------------|
E---------------------------------------------------------------------------|


e-------------------------------------------------------------------|
b10,12,1O,12,10--7,9,7,9,7,9--5,7,5,7,5,7--3,5,3,5,3,5--1,3,1,3,1,3-|
g-------------------------------------------------------------------|
d-------------------------------------------------------------------|
a-------------------------------------------------------------------|
E-------------------------------------------------------------------|

e------------------------------------------------------|
b1,3,1,3--3,5,3,5--5,7,5,7--7,9,7,9---5,3---5,3---5,3--|
g------------------------------------------------------|
d------------------------------------------------------|
a------------------------------------------------------|
E------------------------------------------------------|


e-------------------------------15,17--12,15--10,12--7,9--5,7--3,5--1,3--|
b5,3,-7,5-9,7-10,12-12,15-15,17------------------------------------------|
g------------------------------------------------------------------------|
d------------------------------------------------------------------------|
a------------------------------------------------------------------------|
E------------------------------------------------------------------------|

e---------------------------------------------------------------------|
b10,12,10,12,10,12,10,12--12,14,12,14,12,14--15,17,15,17,15,17,15,17--|
g---------------------------------------------------------------------|
d---------------------------------------------------------------------|
a---------------------------------------------------------------------|
E---------------------------------------------------------------------|


after the solo you play the intro all the way till the end
if you dont understand contact me or go to youtube and look for eat it.
Tap to rate this tab
 
# A B C D E F G H I J K L M N O P Q R S T U V W X Y Z