Song name
# A B C D E F G H I J K L M N O P Q R S T U V W X Y Z

Weird Al Yankovic - Cnr tab

This is a great song by Weird Al that you can find in the ECards Starring You on 
jibjab.com. The other two tabs on here for this song are in Drop-Db and Standard, but with 
major chords. But if you listen, they're just power chords. So here it is!

This is in Standard.

p=pull-off
|=bar line
PH=pinch harmonic; close to the fretboard
b=bend a quarter step
o=repeat
/=slide up
PM=palm mute
\=slide down
1.=1st ending
2.=2nd ending

the notes in () are optional.
                               PH
-----------------------|----------|
-----------------------|----------|
--8-9p8-(8)--6-7p6-(6)-|-7-9-4-2b-|
-9-9---9----7-7---7----|-7-9-4----|
-----------------------|-5-7-2----|
-----------------------|----------|

                    PM
|--------------|----------------------|
|o-------------|-------3-------------o|
|--4-7---------|-------2---4----------|
|--4-7-7-7-7/9-|-------0---4-2-3-2----|
|o-2-5-7-7-7/9-|-------0-0-2-------5-o|
|------5-5-5/7-|-5-4-2----------------|

Verses 1-3
--------|------------|--------|--------------|
--------|------------|--------|--------------|
-4------|------------|-4------|--------------|
-4------|----------0-|-4------|----2-3-2-----|
-2------|---------0--|-2------|----------5-0-|
--------|----0-1-2---|--------|--------------|

-----------|-------------|
-----------|-------------|
-4--4-7--7-|-------------|
-4--4-7--7-|-7---------0-|
-2--2-5--5-|-7-----------|
-----------|-5----0-3-0--|

Play (B5) 2nd time only
-----------|------------|-------|
-----------|------------|-------|
-4--4-7--7-|------------|-9-7-4-|
-4--4-7--7-|-7--7-9-(9)-|-9-7-4-|
-2--2-5--5-|-7--7-9-(9)-|-7-5-2-|
-----------|-5--5-7-(7)-|-------|

Cool part                              / 4th time
                                      2p0 6th time
|----------------|-----------------------|
|o---------------|----------------------o|
|--4-4-4-4---2-2-|-7-7-7-7\-2-2-2/4-4-4--|
|--4-4-4-4---2-2-|-7-7-7-7\-2-2-2/4-4-4--|
|o-2-2-2-2p0-0-0-|-5-5-5-5\-0-0-0/2-2-2-o|
|----------------|-----------------------|

Go back to the Verse.
Go to Verse 4 the 8th time.

Bridge
|----------|--------|
|o---------|--------|
|--9-9-9-9\|7-7-7-7-|
|--9-9-9-9\|7-7-7-7-|
|o-7-7-7-7\|5-5-5-5-|
|----------|--------|

1.
---------------|--------------------|
---------------|-------------------o|
---------------|--------------------|
---------------|--------------------|
---2-2---2-2-2-|-2-2-2-2-2---2-2-2-o|
------2-5------|----------2-5-------|

2.
---------|--------|
---------|--------|
---------|------6-|
---------|------6-|
-/9-7----|------4-|
-----9-7-|-6-2-0--|

Now go back to the Verse again.

Verse 4
|---------|------------|
|o--------|-----------o|
|--4------|------------|
|--4------|---------0--|
|o-2------|-----------o|
|---------|----0-3-0---|

-----------|-------------|
-----------|-------------|
-4--4-7--7-|-------------|
-4--4-7--7-|-7---------0-|
-2--2-5--5-|-7-----------|
-----------|-5----0-3-0--|

-----------|--------|
-----------|--------|
-4----7----|--------|
-4----7----|-7------|
-2----5----|-7------|
-----------|-5------|

Play the cool part 3 times

---------------|-------|
---------------|-------|
-4-4-4-4---2-2-|-7-----|
-4-4-4-4---2-2-|-7-7-9-|
-2-2-2-2p0-0-0-|-5-7-9-|
---------------|---5-7-|

Have fun!
Tap to rate this tab
 
# A B C D E F G H I J K L M N O P Q R S T U V W X Y Z