Song name
# A B C D E F G H I J K L M N O P Q R S T U V W X Y Z

Weird Al Yankovic - Bedrock Anthem tab

e:-------------------------------------------------------------------|
B:3-----------3--------------2--------------------------------------2|
G:------2--------2-----------------------3---------------------------|
D:---4-----4--------4-2------------4--------4--4-2------------4------|
A:5---------------------5-4-----4-----4-------------5-2--4/5-----5---|
E:---------------------------2---------------------------------------|




         H P
e:-------------------------------------------------------------------|
B:-----3-5-3-------------2-------------------------------------------|
G:------------2----------------------3-------------------------2-----|
D:---------------4/6--6--------4--------4--4-2-----------4--------4--|
A:--5------------5/7--7-----4-----4------------5-2--4/5-----5--------|
E:-----------------------2-------------------------------------------|




                                                              H P
e:-------------------------------------------------------------------|
B:3---------------------------------------------------------3-5-3----|
G:---2---------------------3--------------------------2------------2-|
D:-------------------4--------4--4-2------------4--------4-----------|
A:------4-2-------4-----4-------------5-2--4/5-----5-----------------|
E:-----------5-4-----------------------------------------------------|





e:-----------------------------------------|
B:-----------------------------------------|
G:---------------------3--------3----------|
D:-4/6--6--------4--------4--------4-------|
A:-5/7--7-----4-----4--------4--------4----|
E:---------2-------------------------------|
Tap to rate this tab
# A B C D E F G H I J K L M N O P Q R S T U V W X Y Z