Song name
# A B C D E F G H I J K L M N O P Q R S T U V W X Y Z

Weird Al Yankovic - Dare To Be Stupid tab

Hey!
Moxycle Cheesemuncher here - bringing you another Weird Al Tab!
This one goes out to Connor, Af, Logie, Nick, Steele, Shiree, 
Thizdog, Matt Gridley - 'Stick it in my prototype!'
Seizovic, Changy, Sass-Dogg, Chingy, Mini-Barry, PJ - 'frickenheh!'
Baby-eater, Tristan, Matt Gobbi, 
Jay, Bermuda, and of course, Weird Al...

Song: Dare To Be Stupid
Album: Dare To Be Stupid (1985)
Tabber: Jacob Smith

Intro and Verses

e|---------------------------------|
B|---------------------------------|
G|-9-9-9-7-9-----------------------|
D|-9-9-9-7-9--x3-------------------|
A|-7-7-7-5-7------5-4---5-4---4-5--|
E|--------------------7-----7------|
  
Solos
 
e|-----------------------------------------------|
B|-----------------------------------------------|
G|-9-9-9-7-9---14-14-14-12-14---16-16-16-14-16---|
D|-9-9-9-7-9---14-14-14-12-14---16-16-16-14-16---|
A|-7-7-7-5-7---12-12-12-10-12---14-14-14-12-14---|
E|-----------------------------------------------|

That's it for the whole song...
So keep your feet on the ground,
Your head in the stars,
and keep your grubby little fingers out of the mayonaise jar! 
Were you born in a barn???!?!?

Jake Smith,
Moxycle Cheesemuncher,
thefootfreak
Tap to rate this tab
# A B C D E F G H I J K L M N O P Q R S T U V W X Y Z