Song name
# A B C D E F G H I J K L M N O P Q R S T U V W X Y Z

Weird Al Yankovic - King Of Suede tab

----------------------------------------------------------------------------
		    King Of Suede - "Weird Al" Yankovic
----------------------------------------------------------------------------
Tabbed by: djbblue

Tuning: Standard

e|----------10-12-12-------10-12-12----------10-12-14-12-------10-12-12----|
B|-10-12-14----------10-12----------10-12-14-------------10-12-------------|
G|-------------------------------------------------------------------------|
D|-------------------------------------------------------------------------|
A|-------------------------------------------------------------------------|
E|-------------------------------------------------------------------------|

e|----------10-12-12-------10-12-12----------10-12-10----------------------|
B|-10-12-14----------10-12----------10-12-14----------14-12----------------|
G|-------------------------------------------------------------------------|
D|-------------------------------------------------------------------------|
A|-------------------------------------------------------------------------|
E|-------------------------------------------------------------------------|
Tap to rate this tab
 
# A B C D E F G H I J K L M N O P Q R S T U V W X Y Z