Song name
# A B C D E F G H I J K L M N O P Q R S T U V W X Y Z

Weird Al Yankovic - Ebay tab

Help us improve GuitareTab! Take a short survey!
hit me uop at derek2493@yahoo.com



*intro*
E |-------------------------------0---------|
B |----2-----3/2---------3------------------|
G |------2-------2-----2-------2----2-------|
D |-----------------0-----------------------|
A |-------------------------0---------------|
E |--2--------------------------------------|

*1st verse*
E |-------------------------------0---------|
B |----2-----3/2---------3------------------|
G |------2-------2-----2-------2----2-------|
D |-----------------0-----------------------|
A |-------------------------0---------------|
E |--2--------------------------------------|

*chorus*
E |-----------------------------------------|
B |-----------------------------------------|
G |--77777777-6666-7777---------------------|
D |--77777777-6666-7777---------------------|
A |--55555555-6666-7777---------------------|
E |-----------4444-5555---------------------|

E |-----------------------------------------|
B |-----------------------------------------|
G |--77777777-6666-7777---------------------|
D |--77777777-6666-7777---------------------|
A |--55555555-6666-7777---------------------|
E |-----------4444-5555---------------------|

E |-----------------------------------------|
B |-----------------------------------------|
G |-----------4444-6666---------------------|
D |--44444444-4444-6666---------------------|
A |--44444444-2222-4444---------------------|
E |--22222222-------------------------------|

E |-----------------------------------------|
B |-----------------------------------------|
G |-----------4444-2222---------------------|
D |--44444444-4444-2222---------------------|
A |--44444444-2222-0000---------------------|
E |--22222222-------------------------------|

*second verse*
E |-------------------------------0---------|
B |----2-----3/2---------3------------------|
G |------2-------2-----2-------2----2-------|
D |-----------------0-----------------------|
A |-------------------------0---------------|
E |--2--------------------------------------|
Related for Ebay tab