Song name
# A B C D E F G H I J K L M N O P Q R S T U V W X Y Z

Weird Al - Couch Potato tab

Help us improve GuitareTab! Take a short survey!
tabbed by:drummer11
This is pretty much it, but if you have corrections, give me a message on my profile page.



e|----------------------------------------------------------------------|
B|----------------------------------------------------------------------|
G|----------------------------------------------------------------------|
D|---7-7-7-7-7-7-7-7-7-7-7-----8-8-8-8-8-8-8-8-8-8-8--------------------|
A|---5-5-5-5-5-5-5-5-5-5-5--5--5-5-5-5-5-5-5-5-5-5-5--5-----------------|
E|----------------------------------------------------------------------|
                            ^                         ^
                   These arrows are for mutes.
Chorus
e|----------------------------------------------------------------------|
B|----------------------------------------------------------------------|
G|-------------------------------------------5--------------------------|
D|-----7-------------------------8-----------5--------------------------|
A|-----7-------------------------8-----------3--------------------------|
E|-----5-------------------------6--------------------------------------|
Related for Couch Potato tab