Song name
# A B C D E F G H I J K L M N O P Q R S T U V W X Y Z

Weird Owl - White Hidden Fire tab

-------------------------------------------------------------------------------
                         White Hidden Fire - Weird Owl
-------------------------------------------------------------------------------
Tabbed by: martin.roussev
E-mail: martin.roussev@gmail.com

Tuning: E Standard

Playy softly for the guitar part, keep the mid range high with lower distortion tone. 
Slight palm mute throught.
Put a bit of distortion and high bass for the bass part. Feel tempted to slide between 
the notes for the bass part.

Intro (w/guitar)

e|------------------|-------------------|
B|------------------|-------------------|
G|-1---(x)--------7-|-1---(x)-------7---|
D|-2---(5)--------7-|-2---(5)-------7-75|
A|(2)--(x)-5-----(5)|(2)--(x)-5----(5)--|
E|(0)--(3)5--53-5---|(0)--(3)5--53------|

Intro (Bass)

G|----------------|----------------|----------------|----------------|
D|----------------|--------5-----75|----------------|--------55----75|
A|7------\----5---|7-7-------0-5---|7-7----\----5---|7-7-------0-5---|
E|--------3-------|----------------|--------3-------|----------------|


************************************

| /   slide up
| \   slide down
| h   hammer-on
| p   pull-off
| ~   vibrato
| +   harmonic
| x   Mute note
| b   Bend
| pb  Pre-bend
| br  Bend release
| pbr Pre-bend release
| brb Bend release bend

************************************
Tap to rate this tab
# A B C D E F G H I J K L M N O P Q R S T U V W X Y Z