Welcome To The Party - Thunder tab

song        - Welcome to the Party
Album       - The Thrill of it All 
W&M         - Morley
Transcribed - Matt Gilroy

Key

 2/3 Play 2nd fret and slide to 3rd
 3\2 Play 3rd fret and slide to 2nd
 2^3 Play 2nd and hammer-on to 3rd
 3^2 Play 3rd and pull-off to 2nd
 2^^ Vibrato
 10bh Play 10th fret and bend half a tone
 10bq Play 10th fret and bend a quarter of a tone
 10bf Play 10th fret and bend a full tone
 o/o Repeat previous bar
 |: :| Play section between markers again


(Distorted Guitar) 

 (drums enter on 3rd repeat)				x5
|----0--0--0---0--0--0---0--0--0---0--0--0---0--0--0--0---|
|----5--5--5---4--4--4---2--2--2---0--0--0---2--2--4--4---|
|.-------------------------------------------------------.|
|.-------------------------------------------------------.|
|---------------------------------------------------------|
|---------------------------------------------------------|

    E 			       G      E
    Welcome  to the party 		    There's
|----------------------------------------------|
|-------5-----x-x---5---------------------5----|
|---4---4-----x-x---4----------0--0-------4----|
|---2---2-----x-x---2----------0--0---2---2----|
|---2--------------------------x--x---2---2----|
|------------------------------3--3---0--------|

  a new kid   in    town                  and he's
|----------------------------------------------|
|-------5----x-x----5--------------------------|
|---4---4----x-x----4----------0--0------------|
|---2---2----x-x----2----------0--0---2--------|
|---2--------------------------x--x---2--------|
|------------------------------3--3---0---3--2-|

    E 			       G      E
    Looking like a million 		   gonna
|----------------------------------------------|
|-------5-----x-x---5---------------------5----|
|---4---4-----x-x---4----------0--0-------4----|
|---2---2-----x-x---2----------0--0---2---2----|
|---2--------------------------x--x---2---2----|
|------------------------------3--3---0--------|

    E 			       G      E
   bring our burden down 		  and he's
|----------------------------------------------|
|-------5----x-x----5--------------------------|
|---4---4----x-x----4----------0--0------------|
|---2---2----x-x----2----------0--0---2--------|
|---2--------------------------x--x---2--------|
|------------------------------3--3---0---3--2-|

   B
   Talking 'bout love stamping out hate
|----------------------------------------|
|----------------------------------------|
|--4-------------------------------------|
|--4-------------------------------------|
|--2-------------------------------------|
|----------------------------------------|

   F#
  He's gonna fight for the welfare state
|----------------------------------------|
|----------------------------------------|
|----------------------------------------|
|--4-------------------------------------|
|--4-------------------------------------|
|--2-------------------------------------|

   A
   He's gotta vision of a better day
|----------------------------------------|
|----------------------------------------|
|--2-------------------------------------|
|--2-------------------------------------|
|--0-------------------------------------|
|----------------------------------------|

  C 			D
  Rip up the past    and throw it all away
|------------------------------------------|
|------------------------------------------|
|--5--------------------7------------------|
|--5--------------------7------------------|
|--3--------------------5------------------|
|------------------------------------------|

Welcome to the party there's a feeling in the air 
can't you feel the vibrations bringing everybody here

   B 
We got the right face at the right time

 F# 
leading down the front racing for the line

A 
this trains a rolling so get on board

C 		    D 
c'mon everybody you know that you'll be heard


  E 	B 		      C# 		 A
 Oh...  oh.....   there ain't no better place to go.... 
|--------------------------------------------------------|
|--------------------------------------------------------|
|-------4---------------------6------------------2-------|
|-2-----4---------------------6------------------2-------|
|-2-----2---------------------4------------------0-------|
|-0------------------------------------------------------|

 C 	       D
 And all of the doors are open 
|-----------------------------
|----------------------------- 
|-----------------------------
|----------------------------- 
|-----------------------------
|-----------------------------

  E E E  D# D# D# D D D C# C# C# C C B
 w..........i.............d.........e.... 
|-----------------------------------------|
|-----------------------------------------|
|-9-9-9--8--8--8--7-7-7--6--6--6-5-5-4----|
|-9-9-9--8--8--8--7-7-7--6--6--6-5-5-4----|
|-7-7-7--6--6--6--5-5-5--4--4--4-3-3-2----|
|-----------------------------------------|

   E 	       B 	    C# 		  F#
    So come on in  don't you worry about a thing
|-------------------------------------------------|
|-------------------------------------------------|
|--------------4------------6---------------------|
|--2-----------4------------6-------------4-------|
|--2-----------2------------4-------------4-------|
|--0--------------------------------------2-------|

 A 
You can't fight against this tide 
say welcome to the party tonight 		   x4
|-------------------------------|-------------------|
|-------------------------------|-------------------|
|-------------------------------|.----------------.-|
|-------------------------------|.--4b-r-^2--4--2-.-|
|-------------------------------|-------------------|
|----------------------------0--|-------------------|

Use similar rhythm/riff patterns for the rest of the song.... 
Tap to rate this tab
 
# A B C D E F G H I J K L M N O P Q R S T U V W X Y Z