Guitaretab - guitar tabs
Song name
# A B C D E F G H I J K L M N O P Q R S T U V W X Y Z

Weller Paul - Sunflower tab

Some of these chords and riffs are borrowed and improved from the
other tab but this is all right

Intro/Chorus
e|-----7-------7-------7-------7-------7-------7-------7-------7---|
B|---5---5---5---5---5---5---5---5---5---5---5---5---5---5---5---5-|
G|-7-------7-------6-------6-------5-------5-------4-------4-------|
D|-----------------------------------------------------------------|
A|-----------------------------------------------------------------|
E|-----------------------------------------------------------------|

e|-----7-------7-------7-------7-------7-------7-------4-------4---|
B|---5---5---5---5---5---5---5---5---5---5---5---5---5---5---5---5-|
G|-7-------7-------6-------6-------5-------5-------4-------4-------|
D|-----------------------------------------------------------------|
A|-----------------------------------------------------------------|
E|-----------------------------------------------------------------|
[ Tab from: http://www.guitaretab.com/w/weller-paul/20654.html ]
Verse (Just improvise Am and E - here is my favourite)
e|------0--------------0------------------|
B|------1--------------0------------------|
G|-0h2--2--------------1------------------|
D|-0h2----2---0h2--0h2---2-2-2p0--------0-|
A|--------0--------0h2---2-2-----2p0----0-|
E|-------------------------0---------3--0-|
Listen to the song or do whatever sounds good to you

Verse Riff (listen for timing)
"I write this now while I'm in control..."
"I'd run my fingers through your hair..."

C G F Em 

Prechorus (I seperated it from above because it doesn't always
follow them)
E

Bridge
e|-7h9--12--9--14-14-14-14\12-12-| I think 8 times, listen for 
B|-9----12--9--14-14-14-14\12-12-| timing; i dont have access to 
G|-------------------------------| the song on this pc, then:
D|-------------------------------|
A|-------------------------------|
E|-------------------------------|

e|-7h9--12--9----7h9--12--9--| 
B|-9----12--9----9----12--9--|
G|---------------------------|
D|---------------------------|
A|---------------------------|
E|---------------------------|

Outro play bridge and then:

e|-12h14--12--9----12/14--12--0--| 
B|-12-----12--9----12/14--12--9--|
G|-------------------------------|
D|-------------------------------|
A|-------------------------------|
E|-------------------------------|
the last notes can also be played as a bigger E chord:

e|-0-| 
B|-9-| just keep that open e or it wont sound right
G|-9-|
D|-9-|
A|-7-|
E|---|

also, there is a weird bleeping in some of the choruses,
i think it's a keyboard but if you want you can play e|-12-|
its picked 2 notes together at a time 
Related for Sunflower tab