Song name
# A B C D E F G H I J K L M N O P Q R S T U V W X Y Z

Wellfear - Dealers Call tab

Dealer's Call 
By Wellfear
http://www.wellfear.com/

Couldn't find any tabs on these songs so I watched the video and figured out the beginning.  
Someone should help make more Wellfear tabs to get this band out there.
They are a Norwegian metal band started in 2008. "They hold the middle 
ground between the catchy hooks and melodies of Bullet For My Valentine 
and the brutal aggression of Slipknot."


This is a quick metal downpicking section similiar to a lot of Metallica's songs.

pm is palm mute for the bass notes
h and p are hammer-ons and pull-offs

       pm    pm         pm    pm         pm    pm         pm    pm
D|-------------------------------------------------------------------------|
A|-------------------------------------------------------------------------|
F|-------------------------------------------------------------------------|
C|-5p2---5p2---5p2--4p2---4p2---4p2--5p2---5p2---5p2--4p2---4p2---4p2------|
G|-----2-----2----------2-----2----------2-----2----------2-----2----------|
D|-------------------------------------------------------------------------|

       pm    pm         pm    pm         pm    pm        
D|-------------------------------------------------------------------------|
A|-------------------------------------------------------------------------|
F|-------------------------------------------------------------------------|
C|-4p0---4p0---4p0--5p0---5p0---5p0--4p0---4p0---4p0--5h7p5p0-4h5p4p0------|
G|-----0-----0----------0-----0----------0-----0---------------------------|
D|-------------------------------------------------------------------------|

The rhythm guitar for the intro is just the power chords for the 2nd 
and open frets of the G string (or A string in standard)

If anyone needs to ask me any questions, you can email me at medeivalman98@gmail.com
Tap to rate this tab
# A B C D E F G H I J K L M N O P Q R S T U V W X Y Z