Guitaretab - guitar tabs
Song name
# A B C D E F G H I J K L M N O P Q R S T U V W X Y Z

Welshy 15 - Why Do You Want Him tab

Ive seen a few of these on here but none are right except this,
it may not be exact but it sounds totally the same.

Standard tuning

Part 1
E|---------------------------------------------------------|
B|---------------------------------------------------------|
G|-7---7--7-7-7-4---4--4-4-4-------4-----------------------|
D|-7---7--7-7-7-4---4--4-4-4-5-5-5-4-7--7-7-7-7-7-7-7------|
A|-5---5--5-5-5-2---2--2-2-2-5-5-5-2-7--7-7-7-7-7-7-7------|
E|---------------------------3-3-3---5--5-5-5-5-5-5-5------|
               (repeat once)
[ Tab from: http://www.guitaretab.com/w/welshy-15/121326.html ]
Part 2
E|---------------------------------------------------------|
B|---------------------------------------------------------|
G|---7-7-7-7-7-7-------------------------------------------|
D|---7-7-7-7-7-7-7--7-7-7-7-7-4-4-4-4-4-4-4-5-5-5-5-5-5-5-5|
A|---5-5-5-5-5-5-7--7-7-7-7-7-4-4-4-4-4-4-4-5-5-5-5-5-5-5-5|
E|---------------5--5-5-5-5-5-2-2-2-2-2-2-2-3-3-3-3-3-3-3-3|
               (repaeat once)

Part 3
E|--------------|
B|--------------|
G|--------------|
D|----5-7-9-----|
A|----5-7-9-----|
E|----3-5-7-----|


Main body of song

Repeat Part 2, 4x after intro while singing first verse.
Play part 1, 2x for chorus.
Play part 2, 4x again for second verse.
Play part 1, 4x for chorus.
Play part 3, 3 or 4x ???
Play part 2, not sure how many, its for the solo bit.
Play part 1, 4x for chorus.
Play part 2 a few times and end song on.............

E|------------------|
B|------------------|
G|---7-7-7-7-7-7----|
D|---7-7-7-7-7-7----|
A|---5-5-5-5-5-5----|
E|------------------|

Rate this tab please. I wanna know what you think!