Song name
# A B C D E F G H I J K L M N O P Q R S T U V W X Y Z

Wendy And Lisa - Touch Main Title Theme tab

Touch Main Title Theme

Opening
E|-----------|---------------|--------------------------------|---------------|
B|-----------|---------------|-----------------8--6--4--------|---------------|
G|--2--3--5--|--8---5--3--2--|--2--3--5-----5-----------7--5--|--8---5-----2--|
D|-----------|--10-----------|-----------5--------------------|--10-----5-----|
A|--3--5--6--|--10--6--5--3--|--3--5--6-----------------------|--10--6--6--3--|
E|--1--3--4--|--8---4--3--1--|--1--3--4-----------------------|--8---4-----1--|

Lick (4x)
E|---------------------------------------|
B|-----------------------------------10--|
G|--10--8--10--8--10--6----8--10--8--10--|
D|--10--8--10--8--10--6----8--10--8--10--|
A|---------------------------------------|
E|---------------------------------------|

The rest of the song is basically all this repeated a few more times.

http://www.wendyandlisa.com/
Tap to rate this tab
# A B C D E F G H I J K L M N O P Q R S T U V W X Y Z