Song name
# A B C D E F G H I J K L M N O P Q R S T U V W X Y Z

Wenk - Alkohol Und Frauen tab

E|----------------------------------------------------------------------|
A|----------------------------------------------------------------------|
D|----------------------------------------------------------------------|
g|--------------------------------12---------------------------------12-|
h|15-15-15---------13-13-12-12-11---12-13-15-15--------13-13-12-12-11---|
e|--------12-10-10-----------------------------12-10-10-----------------|

E|---------------------------------------------------------------------|
A|---------------------------------------------------------------------|
D|---------------------------------------------------------------------|
g|---------------------------------12----------------------------------|
h|12-13-15-15--------13-13-12-12-11---12-13-15-------------------------|
e|-----------12-10-10--------------------------------------------------|
Tap to rate this tab
# A B C D E F G H I J K L M N O P Q R S T U V W X Y Z