Guitaretab - guitar tabs
Song name
# A B C D E F G H I J K L M N O P Q R S T U V W X Y Z

Were Not Friends Anymore - Revised tab

. palm mute

   intro
eb|----------4--------------4------------------4------------4-4-4-4-4-4-4---|
Bb|----5--------------5--------5--------5-------------5---------------------|
Gb|-------6--------------6-----------------6-------------6------------------|
Db|-4--------------4-----------------0-------------0------------------------|
Ab|-------------------------------------------------------------------------|
Db|-------------------------------------------------------------------------|

   verse(x2)
eb|-------------------------------------------------------------------------|
Bb|-------------------------------------------------------------------------|
Gb|-------------------------------------------------------------------------|
Db|--4--------4--------0-------0--------------------------------------------|
Ab|--4-(x9)---4-(x9)---0-(x9)--0-(x9)---------------------------------------|
Db|--4--------4--------0-------0--------------------------------------------|
     .        .        .       .
[ Tab from: http://www.guitaretab.com/w/were-not-friends-anymore/192704.html ]
  pre-chorus and chorus(x2 each)
eb|--------------------------------------------------------------------------|
Bb|--------------------------------------------------------------------------|
Gb|--------------------------------------------------------------------------|
Db|--4-------------4-------------4------------6------------------------------|
Ab|--4-(x3)--------4-(x3)--------4-(x3)-------6-(x3)-cont.-below-------------|
Db|--4-------------4-------------4------------6------------------------------|
     .             .             .            .
eb|-------------------------------------------------------------------------|
Bb|-------------------------------------------------------------------------|
Gb|-------------------------------------------------------------------------|
Db|--7-----------7-----------7-----------7-----------0-----------0----------|
Ab|--7-(x3)------7-(x3)------7-(x3)------7-(x3)------0-(x3)------0-(x3)-----|
Db|--7-----------7-----------7-----------7-----------0-----------0----------|
     .           .           .           .           .           .
eb|-------------------------------------------------------------------------|
Bb|-------------------------------------------------------------------------|
Gb|-------------------------------------------------------------------------|
Db|--0-----------0-----------2-----------2-----------2-----------2----------|
Ab|--0-(x3)------0-(x3)------2-(x3)------2-(x3)------2-(x3)------2-(x3)-----|
Db|--0-----------0-----------2-----------2-----------2-----------2----------|
     .           .           .           .           .           .

   Breakdown
eb|-------------------------------------------------------------------------|
Bb|-------------------------------------------------------------------------|
Gb|-------------------------------------------------------------------------|
Db|--0---------0-------0-------0-------4-------4-------2-------2------------|
Ab|--0-(x8)----0-(x3)--0-(x8)--0-(x3)--4-(x8)--4-(x3)--2-(x8)--2-(x3)-------|
Db|--0---------0-------0-------0-------4-------4-------2-------2------------|
     .         .       .       .       .       .       .       .

thats all for now
any questions, email me at guitarsavage30@aim.com
thanx and enjoy =)