Song name
# A B C D E F G H I J K L M N O P Q R S T U V W X Y Z

Wes Montgomery - Sues Waltz tab

 
    SONG NAME - Band Name
-------------------------------------------------------------------------------
Tabbed by:Emo-slayer
Email:tatersalad2105@yahoo.com
Tuning:Standard

   FMAJ7          Dmin7      Gmin7          A7          Dmin7
e|---8---5----------5------5---6----3--------0------------5---------------|
B|---5--------8-----6---8------3--------6----5---6--8-----6----6--5-------|
G|---5--------------5----------3-------------6------------5---------------|
D|---7--------------7----------3-------------5------------7---------------|
A|---8--------------5----------x-------------0------------5---------------|
E|-----------------------------3-------------5----------------------------|

   BbMaj7       FMaj7    A7(no5)        Dmin7             Gmin7
e|----------------6-------------5---------5----------5------6-----3-------|
B|---6----5---6---8----6---8--------8-----6------8----------3-------------|
G|---7------------7--------6--------------5-----------------3-------------|
D|---7------------8--------5--------------7-----------------3-------------|
A|---8------------6--------0--------------5-----------------x-------------|
E|---6------------------------------------------------------3-------------|

    Csus     C7        FMaj7
e|---3-------3----------8-------------------------------------------------|
B|---6-------5----------10------------------------------------------------|
G|---3-------3----------9-------------------------------------------------|
D|---5-------5----------10------------------------------------------------|
A|---3-------3----------8-------------------------------------------------|
E|------------------------------------------------------------------------|

I also like  to end the song on an Amin7.

e-8--|
B-5--|
G-5--|
D-5--|
A-x--|
E-5--|

First tab so thanks for any feedback guys.




| /  slide up
| \  slide down
| h  hammer-on
| p  pull-off
| ~  vibrato
| +  harmonic
| x  Mute note
===============================================================================
Tap to rate this tab
 
# A B C D E F G H I J K L M N O P Q R S T U V W X Y Z