Song name
# A B C D E F G H I J K L M N O P Q R S T U V W X Y Z

Wes Montgomery - Besame Mucho tab

(/) Slide Up  (\) Slide Down  (h) Hammer On  (p) Pull Off  (b) Bend (r) Release (v) Vibrato


Tabbed by Ravelle X (Youtube:Xzen2)


E|--------------------------6----------------------|
B|----------------------4-6---6-4-2-4--------------|
G|--3-3-----------3-5-6----------------------------|
D|-------------------------------------------------|
A|-------------------------------------------------|
E|-------------------------------------------------|


E|-------------------------------------------------|
B|--------4--------6---------7-------9-10-11-13----|
G|--3-2-3----8-7-8---10-8-10---10-11------------10-|
D|-------------------------------------------------|
A|-------------------------------------------------|
E|-------------------------------------------------|


E|---------------6-6---6-3-------------------------|
B|--2-4-2-1----------------------------------------|
G|-------------------5-----3-2-1-------------------|
D|-------------------------------------------------|
A|-------------------------------------------------|
E|-------------------------------------------------|
Tap to rate this tab
# A B C D E F G H I J K L M N O P Q R S T U V W X Y Z