Song name
# A B C D E F G H I J K L M N O P Q R S T U V W X Y Z

West Coast Pop Art Experimental Band - A Childs Guide To Good And Evil chords

Highlighted       Show chord diagrams
---------------------------------------------------------------------------
The West Coast Pop Art Experimental Band - A Child's Guide to Good and Evil
---------------------------------------------------------------------------
                      Tabbed by: gutturalguitar
                      Tuning: standard

                      A Child's Guide to Good and Evil (1968)
                      (Bob Markley, Shaun Harris)

                      From: "Volume 3: A Child's Guide to Good and Evil"
---------------------------------------------------------------------------
electric sitar riff (sometimes varies slightly):
e|-10-10--8-7h8p7----------------------------------|
B|------10-------10-8-11-10--10-10h11p10h11-10-----|
G|-------------------------10-----------------10---|
D|----------------------------------------------12-|
A|-------------------------------------------------|
E|-------------------------------------------------|

guitar riff #1:
e|-----0---0---0---0----|
B|--7h8-8p7-7/5-5/3-3/5-|
G|----------------------|
D|----------------------|
A|----------------------|
E|-0--------------------|

guitar riff #2 (sometimes varies slightly):
e|----------------------|
B|--7-8-10-10/12-10-8p7-|
G|-9--------------------|
D|----------------------|
A|----------------------|
E|----------------------|
---------------------------------------------------------------------------

(guitar riff #1)

(electric sitar riff)

| D/F# | G | A# | F | D/F# |

(guitar riffs #1 and #2)

take my hand, and run away with me

through the forests, until the leaves and trees slow us down

a vampire bat will suck blood from our hands

a dog with rabies will bite us

rats will run up your legs, but nothing will matter

(electric sitar riff)

| D/F# | G | A# | F | D/F# |

(guitar riffs #1 and #2)

after the doors of many strange rooms have been bolted and locked

when you come back, dragging your daydreams behind you

I'll give you a new shiny face, and a yellow brick road

the rest of the world is wrong, and don't let anyone change you

(electric sitar riff)

D/F#         G            A#  F            D/F#

evil doesn't exist anymore, except for the war

(electric sitar riff)

D/F#         G            A#  F            D/F#

evil doesn't exist anymore, except for the war 
(I lick my lips for the war, and my tongue)

(electric sitar riff)

D/F#         G            A#  F            D/F#

evil doesn't exist anymore, except for the war
(and I'll be you, and you'll be me, and we'll be one)

(electric sitar riff)

D/F#         G            A#  F            D/F#

evil doesn't exist anymore, except for the war
(and nothing will bother us, no, no, no, no)
Tap to rate this tab
 
# A B C D E F G H I J K L M N O P Q R S T U V W X Y Z