Guitaretab - guitar tabs
Song name
# A B C D E F G H I J K L M N O P Q R S T U V W X Y Z

Western Addiction - Mailer Meet Jim tab

Western Addiction - Mailer, Meet Jim

Intro: 
e|-------------|
B|-------------|
G|-------------|
D|-------------|
A|----66-88-66-|
E|-88----------| x4

Pre-verse:
e|-------------------------------------|
B|-------------------------------------|
G|-----------------6--5-55555555555555-|
D|-3-333333-6-6666-6--5-55555555555555-|
A|-3-333333-6-6666-4--3-33333333333333-|
E|-1-111111-4-4444---------------------|

Verse x2:
e|-----------------|
B|-----------------|
G|------88-1010-88-|
D|-1010-88-1010-88-|
A|-1010-66-8-8--66-|
E|-8-8-------------| x4

e|-------------------------------------|
B|-------------------------------------|
G|-----------------6--5-55555555555555-|
D|-3-333333-6-6666-6--5-55555555555555-|
A|-3-333333-6-6666-4--3-33333333333333-|
E|-1-111111-4-4444---------------------|

Chorus:
e|--------------------|
B|--------------------|
G|--------------------|
D|-5-555555-6--63--36-|
A|-5-555555-6--63--36-|
E|-3-333333-4--41--14-| x3
[ Tab from: http://www.guitaretab.com/w/western-addiction/106605.html ]
e|---------------|
B|---------------|
G|----------8*---|
D|-5-555555-8-8*|
A|-5-555555-6--8-|
E|-3-333333----6-|
 *not in the second chorus

Verse x2

Chorus

Bridge:
e|------------------------------------|
B|------------------------------------|
G|------------------------------------|
D|-5--3-------5--8--10-5---5--8--10-5-|
A|-------6-5-3--6--8--3---3--6--8--3--|
E|------------------------------------|

e|-------------------------------------|
B|-------------------------------------|
G|-5-5xxxx-8-8xxxx---------------------|
D|-5-5xxxx-8-8xxxx-3-3xxxx-6--6--5-555-|
A|-3-3xxxx-6-6xxxx-3-3xxxx-6--6--5-555-|
E|-----------------1-1xxxx-4--4--3-333-|

e|-----------------|
B|-----------------|
G|------88-1010-88-|
D|-1010-88-1010-88-|
A|-1010-66-8-8--66-|
E|-8-8-------------|

Verse

Chorus

Outro:
e|----------------|
B|----------------|
G|----------------|
D|-------------10-|
A|----66-88-66----|
E|-88----------8--|

That's it, please comment or rate. =)
Related for Mailer Meet Jim tab