Song name
# A B C D E F G H I J K L M N O P Q R S T U V W X Y Z

Western Addiction - Charged Ords tab

-----------------------------------------------------------------------------
			 CHARGED WORDS - Western Addiction
-----------------------------------------------------------------------------
Tabbed by:Viper472
Email:RiseAgainst472X@aol.com

Tuning:Standard

Note:The first note is just one of the teo provided, dependign on weather you
want to play the album version (the power chord) or the EP version (the vibrato)
Sorry about the title, it wont let me change it, and my browser screwed up when
entering it.

   Intro Note        Riff 1                Riff 2
e|--------------------------------------------------------------------------|
B|--------------------------------------------------------------------------|
G|--------6~----------------------------------------------------------------|
D|------------------3-3-6-3--3-6-3----------5-3-----------------------------|
A|--3--o------------------------------------3-1-3---------------------------|
E|--1--r----------------------------------------1---------------------------|
        Verse
e|--------------------------------------------------------------------------|
B|--------------------------------------------------------------------------|
G|--------------------------------------------------------------------------|
D|----xxxxxxxxxxxxxxxx--88------88-10101010---------------------------------|
A|--3-xxxxxxxxxxxxxxxx--66-8888-66--8-8-8-8---------------------------------|
E|--1-xxxxxxxxxxxxxxxx-----6666---------------------------------------------|
        Chorus
e|--------------------------------------------------------------------------|
B|--------------------------------------------------------------------------|
G|--------------------------------------------------------------------------|
D|-------10--88888-8-----8--1010101010--------------------------------------|
A|--3-3--8---66666-6-888-6--8-8-8-8-8---------------------------------------|
E|--1-1--------------666----------------------------------------------------|
        Riff 3                   Riff 4                         End On
e|----------------------------------------------------------|---------------|
B|----------------------------------------------------------|---------------|
G|----------------------------------------------------------|---------------|
D|--5555555--3333333---------------------5-3----------------|---------------|
A|--3333333--1111111-----------333333333-3-1----------------|------3--------|
E|-----------------------------011011011--------------------|------1--------|

Playing Order (applies to both versions):
Intro Note
Riff 1 x3
Riff 2
Verse x4
Chorus x2
Riff 1 x3
Riff 2
Verse x4
Chorus x2
Riff 3
Riff 4 x4
Riff 1 x3
Riff 2

| ~  Vibrato
| x  Mute note

E-mail me with any questions, this is my first tab and I think it sounds
absolutly corect. Its a great song to play, hope you have fun.

Western Addiction Website:
www.WesternAddiction.com
Tap to rate this tab
# A B C D E F G H I J K L M N O P Q R S T U V W X Y Z