Song name
# A B C D E F G H I J K L M N O P Q R S T U V W X Y Z

Western Addiction - Church Of The Black Flag tab

Here's the song.  Quite simple.  No timing.

play x2

e----------------------------------------------------------|
B----------------------------------------------------------|
G----------------------------------------------------------|
D----------------------------------------------------------|
A----------------------------------------------------------|
E--2-2-2-3-2-0-2--2-2-3-2-0-2--2-2-3-2-0-3--3-3-5--5-5-0-2-|

play x2

e----------|
B----------|
G--------4-|
D--------4-|
A--------2-|
E--3-2-0---|


e--------------------|
B--------------------|
G--------------------|
D--------4-444444444-|
A--------4-444444444-|
E--3-2-0-2-222222222-|

e------------------|
B------------------|
G--------4-4444444-|
D--------4-4444444-|
A--------2-2222222-|
E--3-2-0-----------|

Chorus

e---------------------------------|
B---------------------------------|
G---------------------------------|
D--5-5555554-444444-5-4---4444444-|
A--5-5555554-444444-5-4---4444444-|
E--3-3333332-222222-3-2-0-2222222-|

e-----------------|
B-----------------|
G-----------------|
D--555555554444---|
A--555555554444---|
E--3333333322220--|

x2

e--------------------|
B--------------------|
G--------------------|
D--------------------|
A--------------------|
E--7-9-10--12-14-14--|

x2

e---------------------|
B---------------------|
G---------------------|
D--9-11-12--14-16-14--|
A---------------------|
E---------------------|

x4

e--------------------|
B--------------------|
G--------------------|
D--99-9---99-9---45--|
A--99-9---99-9---45--|
E--77-7-0-77-7-0-23--|

e---------------------|
B---------------------|
G---------------------|
D-------------------9-|
A-------------------9-|
E--7-9-10--12-14-12-7-|
Tap to rate this tab
# A B C D E F G H I J K L M N O P Q R S T U V W X Y Z