Song name
# A B C D E F G H I J K L M N O P Q R S T U V W X Y Z

Westlife - My Heart Will Go On tab

1.3-3-3-3-3-3-3-3-2-3-3-2-5-7-8-7-5-3-3-3-3-3-3-3-3-2-3-3-2-3-3---3-5-10-8-7-5-|
2.-------------------------------------------------------------3-----3---------|
3.-----------------------------------------------------------------------------|
4.-----------------------------------------------------------------------------|
5.-----------------------------------------------------------------------------|
6.-----------------------------------------------------------------------------|

1.7-8-7-5-3-2-3-3-2-3-5-7-8-7-5--3-5--|
2.----------------------------------3-|
3.------------------------------------|
4.------------------------------------|
5.------------------------------------|
6.------------------------------------|
Tap to rate this tab
 
# A B C D E F G H I J K L M N O P Q R S T U V W X Y Z