Song name
# A B C D E F G H I J K L M N O P Q R S T U V W X Y Z

Westlife - You Raise Me Up tab

--------------------------you raise me up - westlife-------------------------

This is my second tab and it is from the sungha jung version but unfortunately I only 
did the first part. I simplified it enough for beginners like me to play it so please 
leave a comment.
p.s the timing is a lil off so you should estimate it yourself.:-)

Tabbed by:jackson_XDXD
Email:jiesheng32000@gmail.com
Tuning: drop D
CAPO 5
e|---------------------------------------------------------------|
B|------------------------------------1----3--1-1----------------|
G|------2-----0---------------------2-------------20-------------|
D|----3-----3---33--0----3------2-3------3-----------------------|
A|-33------------------3-----------------------------------------|
D|---------------------------------------------------------------|

e|-----0-1-------------------------------------------------------|
B|-1-1--------3--1---1-------------------------------------------|
G|-----------------3---------------0-2--2-2--0-------------------|
D|----------3-----------3------2-3-------------3-2--3------------|
A|---------------------------------------------------------------|
D|---------------------------------------------------------------|

e|-----0-1-----------------------3-1-0-1~------------------------|
B|-1-3--------3-----1---1-----1-------------3-1---1--------------|
G|--------------------3-------------------------3----------------|
D|---------3---------------3--------------3---------3------------|
A|---------------------------------------------------------------|
D|---------------------------------------------------------------|

e|-----0---------------1-----------------------------------------|
B|-------6----3--1---1-------------------------------------------|
G|-3s5-------------3-------------0-2--2-2--0---------------------|
D|---------3-----------------2-3--------------3-2---3------------|
A|--------------------------------------------------0------------|
D|--------------------------------------------------3------------|


Hope you liked it. Practice makes perfect and correct me in the comments if I am wrong thanks.
Tap to rate this tab
 
# A B C D E F G H I J K L M N O P Q R S T U V W X Y Z