Song name
# A B C D E F G H I J K L M N O P Q R S T U V W X Y Z

Westlife - What Do They Know tab

-------------------------------------------------------------------------------
			   What Do They Know-Westlife
-------------------------------------------------------------------------------
Tabbed by:Fweeky
Email: freaky_weekender@hotmail.com

Tuning: standard

                                    ~
e|-----5/7--7-----5--5--10--10--10--10--10--10--8--7--5---|
B|--3----------3------------------------------------------|
G|--------------------------------------------------------|
D|--------------------------------------------------------|
A|--------------------------------------------------------|
E|--------------------------------------------------------|

e|-----5/7--7--5--7--8--2--3------------------------------|
B|--3-------------------------3--1h3p1p0------------------|
G|----------------------------------------2--0------------|
D|--------------------------------------------------------|
A|--------------------------------------------------------|
E|--------------------------------------------------------|
Tap to rate this tab
 
# A B C D E F G H I J K L M N O P Q R S T U V W X Y Z