Wet Slipperz - Bisan Pa tab

bisan pa(solo)-wet slippers

Tuning: Standard

| /  slide up
| \  slide down
| h  hammer-on
| p  pull-off


e|---------------------------------------------------------------|
b|---------------------------------------------------------------|
g|---------------------------------------------------------------|
d|---------5---5---7h-9p-7---777\-555\-222-000-------------------|
a|---/5h--7--7---7---------7-------------------------------------|
e|---------------------------------------------------------------|

e|-------------------------------/10-8-7-------------------------|
b|--------------8h-10-10-8-7-5-----------8--/10^-8---------------|
g|------7h-9p-7----------------7--------------------9^-7---------|
d|----7----------------------------------------------------------|
a|---------------------------------------------------------------|
e|---------------------------------------------------------------|

e|--------------------------------|
b|--------------------------------|
g|---/7-77\-5-55\-4-44\-\2-22-----|
d|--------------------------------|
a|--------------------------------|
e|--------------------------------|

e|-----------------------------10-----10-------------------------|
b|------8---8---8---8h-10-10^^---10^^----10^-8---88--88----------|
g|---/9---9---9---9----------------------------9----9------------|
d|---------------------------------------------------------------|
a|---------------------------------------------------------------|
e|---------------------------------------------------------------|

e|---------15--15--15h--18-18^-----------------------------------|
b|---13h-15--15--15----------------------------------------------|
g|---------------------------------------------------------------|
d|---------------------------------------------------------------|
a|---------------------------------------------------------------|
e|---------------------------------------------------------------|

Thats it, i hope u enjoy it guys. its easy to play, bisrock rules..
By the way add me in facebook here's my mail: kristoffer_hao@yahoo.com. 
Tnx GOD BLESS!!!!
Tap to rate this tab
 
# A B C D E F G H I J K L M N O P Q R S T U V W X Y Z