Song name
# A B C D E F G H I J K L M N O P Q R S T U V W X Y Z

Wet Slipperz - Bisan Pa tab

Band::: Wet Slipperz

Song Title::: Bisan Pa

e|-------------------------------------------------------10-8-7---------------|
B|---------------------------------------8/10-10-8-7-5----------8--10b8-------|
G|---------------------------------7-9-7---------------7----------------9b7---|
D|------5-5--7/9-7-777/555/222-00-7-------------------------------------------|
A|--5/7--7-7------------------------------------------------------------------|
E|----------------------------------------------------------------------------|

|---------------------------------------10------------------15--15--15-18b~~~~|
|-------------------------8-8-8-8-10-10b--10b-88-8-8-8-13/15--15--15----------|
|------------------------9-9-9-9----------------9-9-9-------------------------|
|-10/12-12-101010/999/77------------------------------------------------------|
|-----------------------------------------------------------------------------|
|-----------------------------------------------------------------------------|
Tap to rate this tab
 
# A B C D E F G H I J K L M N O P Q R S T U V W X Y Z