Song name
# A B C D E F G H I J K L M N O P Q R S T U V W X Y Z

Wet Willie - Dixie Rock tab

------------------------------------------------------------------------------
                             Dixie Rock- Wet Willie
                                 Dixie Rock-1975
             Words and Music by Jack Hall, Jimmy Hall and rickey Hirsch
------------------------------------------------------------------------------
Tabbed by: Duane Baldwin
E-mail: duaneandjulie@gmail.com

Tuning: Standard
                                        
Guitar I (Over driven)

Intro

   L.R.       L.R.-------------------|       L.R.----------------|
e|--2----------------------------|--2----------------------------|
B|--3----------------------------|--3----------------------------|
G|--2---------------0---------0--|--2---------------0---------0--|
D|--0------------0---------0-----|--0------------0---------0-----|
A|------0--2--3---------2--------|--x---0--2--3---------2--------|
E|-------------------------------|-------------------------------|


   L.R.       L.R.-------------------|       L.R.----------------|
e|--2----------------------------|--2----------------------------|
B|--3----------------------------|--3----------------------------|
G|--2---------------0---------0--|--2---------------0---------0--|
D|--0------------0---------0-----|--0------------0---------0-----|
A|--x----0--2--3---------2-------|--x----0--2--3---------2-------|
E|-------------------------------|-------------------------------|

1st Verse

Let all notes ring except open G
e|------------------------------------|------------------------------------|
B|----------3-------------3--------3--|----------3-------------3--------3--|
G|-----0h2----2------0h2------0h2-----|-----0h2----2------0h2------0h2-----|
D|--0------------0--------------------|--0------------0--------------------|
A|--x---------------------------------|------------------------------------|
E|------------------------------------|------------------------------------|

e|------------------------------------|------------------------------------|
B|----------3-------------3--------3--|----------3-------------3--------3--|
G|-----0h2----2------0h2------0h2-----|-----0h2----2------0h2------0h2-----|
D|--0------------0--------------------|--0------------0--------------------|
A|------------------------------------|------------------------------------|
E|------------------------------------|------------------------------------|

e|------------------------------------|------------------------------------|
B|----------3-------------3--------3--|----------3-------------3--------3--|
G|-----0h2----2------0h2------0h2-----|-----0h2----2------0h2------0h2-----|
D|--0------------0--------------------|--0------------0--------------------|
A|------------------------------------|------------------------------------|
E|------------------------------------|------------------------------------|


e|------------------------------------|------------------------------------|
B|----------3-------------3--------3--|----------3-------------3--------3--|
G|-----0h2----2------0h2------0h2-----|-----0h2----2------0h2------0h2-----|
D|--0------------0--------------------|--0------------0--------------------|
A|------------------------------------|------------------------------------|
E|------------------------------------|------------------------------------|

1st Chorus

* played by 3rd guitar
e|--------------|---------------|--------------|---------------|
B|------8b------|---------------|------8b------|---------------|
G|-----*9b------|------9tb------|-----*9b------|------9tb------|
D|--------------|-----*7--------|--------------|-----*7--------|
A|--------------|---------------|--------------|---------------|
E|--------------|---------------|--------------|---------------|

e|---------------|---------------|
B|------3-3------|------3-3------|
G|------0h2------|------0h2------|
D|------0-0------|------0-0------|
A|---------------|---------------|
E|---------------|---------------|

2nd Verse

Let all notes ring except open G
e|------------------------------------|------------------------------------|
B|----------3-------------3--------3--|----------3-------------3--------3--|
G|-----0h2----2------0h2------0h2-----|-----0h2----2------0h2------0h2-----|
D|--0------------0--------------------|--0------------0--------------------|
A|--x---------------------------------|------------------------------------|
E|------------------------------------|------------------------------------|

e|------------------------------------|------------------------------------|
B|----------3-------------3--------3--|----------3-------------3--------3--|
G|-----0h2----2------0h2------0h2-----|-----0h2----2------0h2------0h2-----|
D|--0------------0--------------------|--0------------0--------------------|
A|------------------------------------|------------------------------------|
E|------------------------------------|------------------------------------|

e|------------------------------------|------------------------------------|
B|----------3-------------3--------3--|----------3-------------3--------3--|
G|-----0h2----2------0h2------0h2-----|-----0h2----2------0h2------0h2-----|
D|--0------------0--------------------|--0------------0--------------------|
A|------------------------------------|------------------------------------|
E|------------------------------------|------------------------------------|

e|------------------------------------|------------------------------------|
B|----------3-------------3--------3--|----------3-------------3--------3--|
G|-----0h2----2------0h2------0h2-----|-----0h2----2------0h2------0h2-----|
D|--0------------0--------------------|--0------------0--------------------|
A|------------------------------------|------------------------------------|
E|------------------------------------|------------------------------------|

2nd Chorus

* played by 3rd guitar
e|--------------|---------------|--------------|---------------|
B|------8b------|---------------|------8b------|---------------|
G|-----*9b------|------9tb------|-----*9b------|------9tb------|
D|--------------|-----*7--------|--------------|-----*7--------|
A|--------------|---------------|--------------|---------------|
E|--------------|---------------|--------------|---------------|

e|--------------|---------------|--------------|---------------|
B|------8b------|---------------|------8b------|---------------|
G|-----*9b------|------9tb------|-----*9b------|------9tb------|
D|--------------|-----*7--------|--------------|-----*7--------|
A|--------------|---------------|--------------|---------------|
E|--------------|---------------|--------------|---------------|

Bridge

e|---------|---------|----------------|---------|---------|---------|
B|---------|---------|--20b--20--18---|---------|---------|----13b--|
G|---------|---------|----------------|---------|---------|---------|
D|----5----|----3----|----------------|----5----|----3----|---------|
A|----5----|----3----|----------------|----5----|----3----|---------|
E|----3----|----1----|----------------|----3----|----1----|---------|

e|--20b--20--17-----------|---------|------------------|
B|---------------18--18\--|---------|------------------|
G|------------------------|----2----|--4-----5-----6---|
D|------------------------|----2----|--4-----5-----6---|
A|------------------------|----0----|--2-----3-----4---|
E|------------------------|---------|------------------|

Main Solo

e|--------------|--------------|-------------------------|
B|--11b---11b---|--11b---11b---|-------------------------|
G|--------------|--------------|--9pbr--7--7-------------|
D|--------------|--------------|--------------9--7-------|
A|--------------|--------------|--------------------9\7--|
E|--------------|--------------|-------------------------|

e|----------------------|--------------------|-------------------------|
B|----------------------|--------------------|-------------------------|
G|----------------------|--7-----7-----7--9--|--9pbr--7--7-------------|
D|----------------7--9--|-----9-----9--------|--------------9--7-------|
A|--5-----5--7/9--------|--------------------|--------------------9\7--|
E|-----7----------------|--------------------|-------------------------|

e|-----------------------------------------|
B|-----------------------------------------|
G|-----------------------------------------|
D|-----------------------------------------|
A|--5--5--------------5--5--------------5--|
E|--------7--5--5--7--------7--5--5--7-----|

e|-------------------------------------|
B|-------------------------------------|
G|-------------------------------------|
D|----------------------------------7--|
A|--5--------------5--5--7--5--7/9-----|
E|-----7--5--5--7----------------------|

e|--------------------------------------|
B|--------------------------7--7-----7--|
G|--7--9--7--7-----7--7--9--------9-----|
D|--------------9-----------------------|
A|--------------------------------------|
E|--------------------------------------|

e|--------------------------------------|
B|--------------------------------------|
G|--7--------------7--7--9--7--7-----7--|
D|-----9--7--7--9-----------------9-----|
A|--------------------------------------|
E|--------------------------------------|

e|----------------------------------------------------------|
B|----------------------------------------------------------|
G|--9p7-----7-----9p7-----7-----9p7-----7-----9p7-----7-----|
D|-------9-----9-------9-----9-------9-----9-------9-----9--|
A|----------------------------------------------------------|
E|----------------------------------------------------------|

e|--------------------------------------------------------|
B|--------------------------------------------------------|
G|--9p7-----7-----9p7-----7-----9p7-----7-----7-----7-----|
D|-------9-----9-------9-----9-------9-----9-----9-----9--|
A|--------------------------------------------------------|
E|--------------------------------------------------------|

e|---------------------------------------------------------------------------|
B|--7--10p7-----7--10p7-----7--10p7-----7--10p7-----7--10p7-----7--10p7------|
G|-----------9-----------9-----------9-----------9-----------9-----------9---|
D|---------------------------------------------------------------------------|
A|---------------------------------------------------------------------------|
E|---------------------------------------------------------------------------|

e|--------------------------|-----------------------------------------------|
B|--7--10p7-----7--10p7-----|--10--12p10------10--12p10------10--12p10------|
G|-----------9-----------9--|-------------11-------------11-------------11--|
D|--------------------------|-----------------------------------------------|
A|--------------------------|-----------------------------------------------|
E|--------------------------|-----------------------------------------------|

e|---------------------------------------------|---------------------------|
B|--10--12p10------10--12p10------10-------15--|--18b--18b--18b--18b--17b--|
G|-------------11-------------11------/16------|---------------------------|
D|---------------------------------------------|---------------------------|
A|---------------------------------------------|---------------------------|
E|---------------------------------------------|---------------------------|

e|------------------------|------------17--------|
B|--15------15--17br--15--|--18b--18b------17br--|
G|------16----------------|----------------------|
D|------------------------|----------------------|
A|------------------------|----------------------|
E|------------------------|----------------------|

e|---------------------------------|
B|--15--15------15--18b--17br--15--|
G|----------16---------------------|
D|---------------------------------|
A|---------------------------------|
E|---------------------------------|

Intro reprise

   L.R.       L.R.-------------------|       L.R.----------------|
e|--2----------------------------|--2----------------------------|
B|--3----------------------------|--3----------------------------|
G|--2---------------0---------0--|--2---------------0---------0--|
D|--0------------0---------0-----|--0------------0---------0-----|
A|------0--2--3---------2--------|--x---0--2--3---------2--------|
E|-------------------------------|-------------------------------|


   L.R.       L.R.-------------------|       L.R.----------------|
e|--2----------------------------|--2----------------------------|
B|--3----------------------------|--3----------------------------|
G|--2---------------0---------0--|--2---------------0---------0--|
D|--0------------0---------0-----|--0------------0---------0-----|
A|--x----0--2--3---------2-------|--x----0--2--3---------2-------|
E|-------------------------------|-------------------------------|

3rd Verse

Let all notes ring except open G
e|------------------------------------|------------------------------------|
B|----------3-------------3--------3--|----------3-------------3--------3--|
G|-----0h2----2------0h2------0h2-----|-----0h2----2------0h2------0h2-----|
D|--0------------0--------------------|--0------------0--------------------|
A|--x---------------------------------|------------------------------------|
E|------------------------------------|------------------------------------|

e|------------------------------------|------------------------------------|
B|----------3-------------3--------3--|----------3-------------3--------3--|
G|-----0h2----2------0h2------0h2-----|-----0h2----2------0h2------0h2-----|
D|--0------------0--------------------|--0------------0--------------------|
A|------------------------------------|------------------------------------|
E|------------------------------------|------------------------------------|

e|------------------------------------|------------------------------------|
B|----------3-------------3--------3--|----------3-------------3--------3--|
G|-----0h2----2------0h2------0h2-----|-----0h2----2------0h2------0h2-----|
D|--0------------0--------------------|--0------------0--------------------|
A|------------------------------------|------------------------------------|
E|------------------------------------|------------------------------------|

e|------------------------------------|------------------------------------|
B|----------3-------------3--------3--|----------3-------------3--------3--|
G|-----0h2----2------0h2------0h2-----|-----0h2----2------0h2------0h2-----|
D|--0------------0--------------------|--0------------0--------------------|
A|------------------------------------|------------------------------------|
E|------------------------------------|------------------------------------|

3rd Chorus

* played by 3rd guitar
e|--------------|---------------|--------------|---------------|
B|------8b------|---------------|------8b------|---------------|
G|-----*9b------|------9tb------|-----*9b------|------9tb------|
D|--------------|-----*7--------|--------------|-----*7--------|
A|--------------|---------------|--------------|---------------|
E|--------------|---------------|--------------|---------------|

e|--------------|---------------|--------------|---------------|
B|------8b------|---------------|------8b------|---------------|
G|-----*9b------|------9tb------|-----*9b------|------9tb------|
D|--------------|-----*7--------|--------------|-----*7--------|
A|--------------|---------------|--------------|---------------|
E|--------------|---------------|--------------|---------------|

Outro

e|------------------------------|-----------------|-----------------|
B|------------------------------|-----------------|-----------------|
G|---------------------------2--|--------------2--|--------------2--|
D|--7--7--9--7--10--7--9--7--0--|--7--7--9--7--0--|--7--7--9--7--0--|
A|--5--5--5--5--5---5--5--5-----|--5--5--5--5-----|--5--5--5--5-----|
E|------------------------------|-----------------|-----------------|


                    Trill All chords next five measures
e|-----------------|------------|------------|--------------|--------------|
B|-----------------|---3----5---|---7----8---|---10----12---|---13----14---|
G|--------------2--|---2----4---|---6----7---|---9-----11---|---12----13---|
D|--7--7--9--7--0--|---0--------|------------|--------------|--------------|
A|--5--5--5--5-----|------------|------------|--------------|--------------|
E|-----------------|------------|------------|--------------|--------------|

  Hold and trill for four measures
e|----------|------------|------------|------------|
B|----15----|------------|------------|------------|
G|----14----|------------|------------|------------|
D|----------|------------|------------|------------|
A|----------|------------|------------|------------|
E|----------|------------|------------|------------|


  All up strokes on chords
e|-------1---|--3----5---|-------1---|--3----5---|-------1---|--3----5---|
B|--3----1---|--3----5---|--3----1---|--3----5---|--3----1---|--3----5---|
G|--2----2---|--4----6---|--2----2---|--4----6---|--2----2---|--4----6---|
D|--0----0---|--0----0---|--0----0---|--0----0---|--0----0---|--0----0---|
A|-----------|-----------|-----------|-----------|-----------|-----------|
E|-----------|-----------|-----------|-----------|-----------|-----------|


                                 Let all notes ring
e|-------1---|----3----|--------|--5------5-----|--------5--------5----------|
B|--3----1---|----3----|--------|--7---------7--|-----7--------7-----7-----7-|
G|--2----2---|----4----|--------|--7---7--------|--7--------7-----------7----|
D|--0----0---|----0----|--------|--0------------|----------------------------|
A|-----------|---------|--------|---------------|----------------------------|
E|-----------|---------|--------|---------------|----------------------------|

e|--5-----5--------5------|
B|-----7-----7--------7---|
G|--------------7---------|
D|------------------------|
A|------------------------|
E|------------------------|

Guitar II (Over driven)

Intro

e|--10-----------|---8/10-----------|---8/10-----------|---8/10-----------|
B|--10-----------|---8/10-----------|---8/10-----------|---8/10-----------|
G|--11---9-------|---9/11---9-------|---9/11---9-------|---9/11---9-------|
D|--12---9---7---|--11/12---9---7---|--11/12---9---7---|--11/12---9---7---|
A|-----------7---|--------------7---|--------------7---|--------------7---|
E|---------------|------------------|------------------|------------------|

1st Verse

  Let all notes ring
e|----------------------------|----------------------------|
B|-----3-----------3-------3--|-----3-----------3-------3--|
G|-----0h2----0h2-----0h2-----|-----0h2----0h2-----0h2-----|
D|--0--0----------------------|--0--0----------------------|
A|----------------------------|----------------------------|
E|----------------------------|----------------------------|

e|----------------------------|----------------------------|
B|-----3-----------3-------3--|-----3-----------3-------3--|
G|-----0h2----0h2-----0h2-----|-----0h2----0h2-----0h2-----|
D|--0--0----------------------|--0--0----------------------|
A|----------------------------|----------------------------|
E|----------------------------|----------------------------|

e|----------------------------|----------------------------|
B|-----3-----------3-------3--|-----3-----------3-------3--|
G|-----0h2----0h2-----0h2-----|-----0h2----0h2-----0h2-----|
D|--0--0----------------------|--0--0----------------------|
A|----------------------------|----------------------------|
E|----------------------------|----------------------------|

e|----------------------------|----------------------------|
B|-----3-----------3-------3--|-----3-----------3-------3--|
G|-----0h2----0h2-----0h2-----|-----0h2----0h2-----0h2-----|
D|--0--0----------------------|--0--0----------------------|
A|----------------------------|----------------------------|
E|----------------------------|----------------------------|

1st Chorus

  Palm mute through out
e|--------------------------------------------------|
B|--------------------------------------------------|
G|--------------------------------------------------|
D|--7--7--9--7--7--7--9--7--5--5--7--5--------------|
A|--5--5--5--5--5--5--5--5--3--3--3--3--5--5--7--5--|
E|--------------------------------------3--3--3--3--|

e|--------------------------------------------------|
B|--------------------------------------------------|
G|--------------------------------------------------|
D|--7--7--9--7--7--7--9--7--5--5--7--5--------------|
A|--5--5--5--5--5--5--5--5--3--3--3--3--5--5--7--5--|
E|--------------------------------------3--3--3--3--|

e|--------------------------------------------------|
B|--------------------------------------------------|
G|--------------------------------------------------|
D|--7--7--9--7--7--7--9--7--5--5--7--5--------------|
A|--5--5--5--5--5--5--5--5--3--3--3--3--5--5--7--5--|
E|--------------------------------------3--3--3--3--|

e|---------------------------------------------|----8/10----|----8/10----|
B|---------------------------------------------|----8/10----|----8/10----|
G|---------------------------------------------|----9/11----|----9/11----|
D|--7--7--9--7--7--7--9--7--5--5--7--5---------|------------|------------|
A|--5--5--5--5--5--5--5--5--3--3--3--3--5--5---|------------|------------|
E|--------------------------------------3--3---|------------|------------|

2nd Verse

  Let all notes ring
e|----------------------------|----------------------------|
B|-----3-----------3-------3--|-----3-----------3-------3--|
G|-----0h2----0h2-----0h2-----|-----0h2----0h2-----0h2-----|
D|--0--0----------------------|--0--0----------------------|
A|----------------------------|----------------------------|
E|----------------------------|----------------------------|

e|----------------------------|----------------------------|
B|-----3-----------3-------3--|-----3-----------3-------3--|
G|-----0h2----0h2-----0h2-----|-----0h2----0h2-----0h2-----|
D|--0--0----------------------|--0--0----------------------|
A|----------------------------|----------------------------|
E|----------------------------|----------------------------|

e|----------------------------|----------------------------|
B|-----3-----------3-------3--|-----3-----------3-------3--|
G|-----0h2----0h2-----0h2-----|-----0h2----0h2-----0h2-----|
D|--0--0----------------------|--0--0----------------------|
A|----------------------------|----------------------------|
E|----------------------------|----------------------------|

e|----------------------------|----------------------------|
B|-----3-----------3-------3--|-----3-----------3-------3--|
G|-----0h2----0h2-----0h2-----|-----0h2----0h2-----0h2-----|
D|--0--0----------------------|--0--0----------------------|
A|----------------------------|----------------------------|
E|----------------------------|----------------------------|

2nd Chorus

  Palm mute through out
e|--------------------------------------------------|
B|--------------------------------------------------|
G|--------------------------------------------------|
D|--7--7--9--7--7--7--9--7--5--5--7--5--------------|
A|--5--5--5--5--5--5--5--5--3--3--3--3--5--5--7--5--|
E|--------------------------------------3--3--3--3--|

e|--------------------------------------------------|
B|--------------------------------------------------|
G|--------------------------------------------------|
D|--7--7--9--7--7--7--9--7--5--5--7--5--------------|
A|--5--5--5--5--5--5--5--5--3--3--3--3--5--5--7--5--|
E|--------------------------------------3--3--3--3--|

e|--------------------------------------------------|
B|--------------------------------------------------|
G|--------------------------------------------------|
D|--7--7--9--7--7--7--9--7--5--5--7--5--------------|
A|--5--5--5--5--5--5--5--5--3--3--3--3--5--5--7--5--|
E|--------------------------------------3--3--3--3--|

e|--------------------------------------------------|
B|--------------------------------------------------|
G|--------------------------------------------------|
D|--7--7--9--7--7--7--9--7--5--5--7--5--------------|
A|--5--5--5--5--5--5--5--5--3--3--3--3--5--5--7--5--|
E|--------------------------------------3--3--3--3--|

e|--------------------------------------------------|
B|--------------------------------------------------|
G|--------------------------------------------------|
D|--7--7--9--7--7--7--9--7--5--5--7--5--------------|
A|--5--5--5--5--5--5--5--5--3--3--3--3--5--5--7--5--|
E|--------------------------------------3--3--3--3--|

e|--------------------------------------------------|
B|--------------------------------------------------|
G|--------------------------------------------------|
D|--7--7--9--7--7--7--9--7--5--5--7--5--------------|
A|--5--5--5--5--5--5--5--5--3--3--3--3--5--5--7--5--|
E|--------------------------------------3--3--3--3--|

e|--------------------------------------------------|
B|--------------------------------------------------|
G|--------------------------------------------------|
D|--7--7--9--7--7--7--9--7--5--5--7--5--------------|
A|--5--5--5--5--5--5--5--5--3--3--3--3--5--5--7--5--|
E|--------------------------------------3--3--3--3--|

e|--------------------------------------------------|
B|--------------------------------------------------|
G|--------------------------------------------------|
D|--7--7--9--7--7--7--9--7--5--5--7--5--------------|
A|--5--5--5--5--5--5--5--5--3--3--3--3--5--5--7--5--|
E|--------------------------------------3--3--3--3--|

Bridge

e|---3----1---|--------------------------------------------------|
B|---3----1---|--------------------------------------------------|
G|---0----2---|--------------------------------------------------|
D|---0----3---|--7--7--9--7--7--7--9--7--5--5--7--5--------------|
A|---2----3---|--5--5--5--5--5--5--5--5--3--3--3--3--5--5--7--5--|
E|---3----1---|--------------------------------------3--3--3--3--|

e|--------------------------------------------------|
B|--------------------------------------------------|
G|--------------------------------------------------|
D|--7--7--9--7--7--7--9--7--5--5--7--5--------------|
A|--5--5--5--5--5--5--5--5--3--3--3--3--5--5--7--5--|
E|--------------------------------------3--3--3--3--|

e|---3----1---|--------------------------------------------------|
B|---3----1---|--------------------------------------------------|
G|---0----2---|--------------------------------------------------|
D|---0----3---|--7--7--9--7--7--7--9--7--5--5--7--5--------------|
A|---2----3---|--5--5--5--5--5--5--5--5--3--3--3--3--5--5--7--5--|
E|---3----1---|--------------------------------------3--3--3--3--|

e|--------------------------------------------------|---------|-------------|
B|--------------------------------------------------|---------|-------------|
G|--------------------------------------------------|----2----|--4---5---6--|
D|--7--7--9--7--7--7--9--7--5--5--7--5--------------|----2----|--4---5---6--|
A|--5--5--5--5--5--5--5--5--3--3--3--3--5--5--7--5--|----0----|--2---3---4--|
E|--------------------------------------3--3--3--3--|---------|-------------|

Main Solo Repeat nine times

  Palm mute through out
e|--------------------------------------------------|
B|--------------------------------------------------|
G|--------------------------------------------------|
D|--7--7--9--7--7--7--9--7--5--5--7--5--------------|
A|--5--5--5--5--5--5--5--5--3--3--3--3--5--5--7--5--|
E|--------------------------------------3--3--3--3--|

e|--------------------------------------------------|
B|--------------------------------------------------|
G|--------------------------------------------------|
D|--7--7--9--7--7--7--9--7--5--5--7--5--------------|
A|--5--5--5--5--5--5--5--5--3--3--3--3--5--5--7--5--|
E|--------------------------------------3--3--3--3--|

Intro reprise

e|----2----|----2----|----2----|----2----|
B|----3----|----3----|----3----|----3----|
G|----2----|----2----|----2----|----2----|
D|----0----|----0----|----0----|----0----|
A|---------|---------|---------|---------|
E|---------|---------|---------|---------|

3rd Verse

  Let all notes ring
e|----------------------------|----------------------------|
B|-----3-----------3-------3--|-----3-----------3-------3--|
G|-----0h2----0h2-----0h2-----|-----0h2----0h2-----0h2-----|
D|--0--0----------------------|--0--0----------------------|
A|----------------------------|----------------------------|
E|----------------------------|----------------------------|

e|----------------------------|----------------------------|
B|-----3-----------3-------3--|-----3-----------3-------3--|
G|-----0h2----0h2-----0h2-----|-----0h2----0h2-----0h2-----|
D|--0--0----------------------|--0--0----------------------|
A|----------------------------|----------------------------|
E|----------------------------|----------------------------|

e|----------------------------|----------------------------|
B|-----3-----------3-------3--|-----3-----------3-------3--|
G|-----0h2----0h2-----0h2-----|-----0h2----0h2-----0h2-----|
D|--0--0----------------------|--0--0----------------------|
A|----------------------------|----------------------------|
E|----------------------------|----------------------------|

e|----------------------------|----------------------------|
B|-----3-----------3-------3--|-----3-----------3-------3--|
G|-----0h2----0h2-----0h2-----|-----0h2----0h2-----0h2-----|
D|--0--0----------------------|--0--0----------------------|
A|----------------------------|----------------------------|
E|----------------------------|----------------------------|

3rd Chorus repeat 4 times

  Palm mute through out
e|--------------------------------------------------|
B|--------------------------------------------------|
G|--------------------------------------------------|
D|--7--7--9--7--7--7--9--7--5--5--7--5--------------|
A|--5--5--5--5--5--5--5--5--3--3--3--3--5--5--7--5--|
E|--------------------------------------3--3--3--3--|

e|--------------------------------------------------|
B|--------------------------------------------------|
G|--------------------------------------------------|
D|--7--7--9--7--7--7--9--7--5--5--7--5--------------|
A|--5--5--5--5--5--5--5--5--3--3--3--3--5--5--7--5--|
E|--------------------------------------3--3--3--3--|

Outro

  Palm mute through out
e|---------------------------------------------------|
B|---------------------------------------------------|
G|---------------------------------------------------|
D|--7--7--9--7--10--7--9--7--5--5--7--5--5--5--7--5--|
A|--5--5--5--5--5---5--5--5--3--3--3--3--3--3--3--3--|
E|---------------------------------------------------|

e|---------------------------------------------------|
B|---------------------------------------------------|
G|---------------------------------------------------|
D|--7--7--9--7--10--7--9--7--5--5--7--5--5--5--7--5--|
A|--5--5--5--5--5---5--5--5--3--3--3--3--3--3--3--3--|
E|---------------------------------------------------|

e|---------------------------------------------------|
B|---------------------------------------------------|
G|---------------------------------------------------|
D|--7--7--9--7--10--7--9--7--5--5--7--5--5--5--7--5--|
A|--5--5--5--5--5---5--5--5--3--3--3--3--3--3--3--3--|
E|---------------------------------------------------|

e|---------------------------------------------------|
B|---------------------------------------------------|
G|---------------------------------------------------|
D|--7--7--9--7--10--7--9--7--5--5--7--5--5--5--7--5--|
A|--5--5--5--5--5---5--5--5--3--3--3--3--3--3--3--3--|
E|---------------------------------------------------|

e|---------------------------|
B|---------------------------|
G|---------------------------|
D|--7--7--9--7--10--7--9--7--|
A|--5--5--5--5--5---5--5--5--|
E|---------------------------|

  
  Repeat 5 times
e|---------------------------------------------------|
B|---------------------------------------------------|
G|---------------------------------------------------|
D|--7--7--9--7--10--7--9--7--5--5--7--5--5--5--7--5--|
A|--5--5--5--5--5---5--5--5--3--3--3--3--3--3--3--3--|
E|---------------------------------------------------|

e|---------------------------------------------------|
B|---------------------------------------------------|
G|---------------------------------------------------|
D|--7--7--9--7--10--7--9--7--5--5--7--5--5--5--7--5--|
A|--5--5--5--5--5---5--5--5--3--3--3--3--3--3--3--3--|
E|---------------------------------------------------|

Add last time

e|---------------------------------------------------|
B|---------------------------------------------------|
G|---------------------------------------------------|
D|--7--7--9--7--10--7--9--7--5--5--7--5--5--5--7--5--|
A|--5--5--5--5--5---5--5--5--3--3--3--3--3--3--3--3--|
E|---------------------------------------------------|

 ************************************

| /   slide up
| \   slide down
| h   hammer-on
| p   pull-off
| ~   vibrato
| +   harmonic
| x   Mute note
| b   Bend
| pb  Pre-bend
| br  Bend release
| pbr Pre-bend release
| brb Bend release bend
| hb  half bend
| tb  Three quarter bend
************************************
Tap to rate this tab
# A B C D E F G H I J K L M N O P Q R S T U V W X Y Z