Song name
# A B C D E F G H I J K L M N O P Q R S T U V W X Y Z

Wet Willy - Everybodys Stoned tab

From:   DON META [dmeta@home.quadro.net]
Sent:   Friday, January 09, 1998 9:22 PM

from the album "The Wetter The Better" by Wet Willie

                "Everybody's Stoned"
        
        Piano intro arranged for guitar:
        Dmaj7                     C#sus C#7 C#m7
        --------5--7--5-------------4---4---4--4-----7-
        -7----7----------------7----7---6---5-5-5------
        -6---6-----------------4---6-6--4---4----4-4---
        -7--7------------7--9--4--6----------------6---
        -5-5-------------------4--------4---4----------
        -----------------5-------------------------4---
                F#sus4  F#m7    Dmaj7
        --------------2-2-2-2--5-----5-5-7-9-5---------
        --------2--2--2---5-2--7----7--------7---------
        ----4h6-4--2--2---2-2--6---6---------6--4h6---
        ----6---2--2-----------7--7----------7-7-------
        --7--------------------5-5-----------5--------
        ----4---2-----2-----2------------------5-------

       C#sus4   C#7   F#m7               Asus      A7
        --------------9--14-9--12-9--------5--------5--
        -7------6-----10-----10----------5--5------5----
        -4-4h7--4-----9------------9-----7--------6----
        -4----4-4-----11-------------11--5-------5-------
        -4-4----4-----9-------------------------7-----
        ---------------------------------5-----5--------

        Verse 1
        Dmaj7     C#sus4      C#7        C#m7    F#sus4 F#m7
        Everybody seems like they're so stoned, to--day

        Dmaj7               C#sus4  C#7            F#m7
        Seems we just don't real----ize where we're going

                 Asus4        A7
        and it's sad for me to say


        Chorus:
        Dmaj7       C#sus4 C#7    Dmaj7             C#sus4
        Everybody's sto----ned    but the feelin' is go---

         C#7  Dmaj7                    Bsus4   B7
        -ne  I've been thinking 'bout a lot of things

                Esus4  E
        in this song

        Verse 2
        Dmaj7               C#sus4 C#7   C#m7    F#sus
        Guess it's just the way I feel inside that makes

           F#m7  Dmaj7              C#sus   C#7
        me sing. Sing these words I sing to you,

                F#m7           Asus       A7
        show my feeling and I hope it isn't true


        Chorus:
         Dmaj7       C#sus4 C#7    Dmaj7             C#sus4
        Everybody's sto----ned    but the feelin' is go---

         C#7  Dmaj7                    Bsus4   B7
        -ne  I've been thinking 'bout a lot of things

                Esus4 E  Esus4  E
        in this song    whoah--oh

        Guitar solo: key modulates to D#

        D#maj7         Dsus4  D7  D#maj7         Dsus4 D7
        -------------------------------------------~--~---
slide   -----------------------------------------/18\\15---
guitar  -------------~---~---------------------~----------
        /12--14--15/17--17\\\14---/12--14--15/17---------
        /12-----------------------/12---------------------
        --------------------------------------------------


                              (key modulates back)
        D#maj7           Dsus4  D7    Bsus4       
          ~         ~     ~   
        -/15-13----------/15--13-----------12\\-------/17
        --------13//-------------/15---/12-----/////17--
        ------------15-----------------------------------
        -------------------------------------------------
        ------------------------------------------------
        ------------------------------------------------
          Esus         E
           ~             ~
        //-24-----------/24-----------------------------
        ------24\\-------------------------------------
        ----------//25\\-------------------------------
        -------------------------------------------
        -------------------------------------------
        -------------------------------------------

        Verse 3
        Dmaj7            C#sus4    C#7                
        All the pictures driftin', driftin' through

           C#m7     F#sus4   F#m7
        the years

        Dmaj7             C#sus4     C#7            
        I don't know just where it's headed but it's

        F#m7        Asus4     A7
        taken------ everybody here

        Repeat Chorus and fadeout:

            I haven't tried to copy the piano intro note
        for note but I hope I have the basic feel of it.
        The last few notes of the guitar solo are off the
        top of the fretboard but not too far. If there are
        any mistakes or additions please email me at
                  dmeta@quadro.net
Tap to rate this tab
 
# A B C D E F G H I J K L M N O P Q R S T U V W X Y Z