Guitaretab - guitar tabs
Song name
# A B C D E F G H I J K L M N O P Q R S T U V W X Y Z

Whale - Hobo Humping Slobo Babe tab

From: tmvtzet@cs.vu.nl (Zet van t TM)

"Hobo Humping Slobo Babe" - Whale

Basstab transcription by Mark van 't Zet (tmvtzet@cs.vu.nl)

VERSE

  'seeking candy..'

  -----------------------------------
  --5---------3-5---3-----------3-3--
  ----------------------3-3-5--------
  ----3-3-3-3------------------------
    1 e & e 2 e & e 3 e & e 4 e & e

PRE-CHORUS

  'but you always came back for me'

  ------------5------------------------------------------------------
  ------------5--------------(5\)------------------------------------
  --3---3---x-----x-3---3---x-------2---2---x-x-5---5---5---5--------
  -------------------------------------------------------------------
    1 e & e 2 e & e 3 e & e 4 e & e 1 e & e 2 e & e 3 e & e 4 e & e 

CHORUS

  'hobo humping slobo babe..'

  -----------------------------------
  ------------3-2-------------3-2----
  -----------------------------------
  --1-2-3-3-3-----3-1-2-3-3-3-----3--
    1 e & e 2 e & e 3 e & e 4 e & e

  (guitar plays along with bass [heavily distorted F F# G-chords])
[ Tab from: http://www.guitaretab.com/w/whale/20682.html ]
Related for Hobo Humping Slobo Babe tab
×
Hobo Humping Slobo Babe