Song name
# A B C D E F G H I J K L M N O P Q R S T U V W X Y Z

Wham - Careless Whisper tab

♫ ♫ ♫ ♫ ♫ ♫ ♫ ♫ ♫ ♫ ♫
schmoophzie@live.com




e---12--10----------12--10----------]
b-----------10--------------10------]
g---------------10--------------10--]
D-----------------------------------]
A-----------------------------------]
E-----------------------------------]


e-----------------------------------]
b--13--11--------13--11-------------]
g---------10------------10----------]
D------------12---------------------]
A-----------------------------------]
E-----------------------------------]

e-----------------------------------]
b---11--10--------------------------]
g-----------10----------------------]
D---------------12----8-------------]
A-----------------------------------]
E-----------------------------------]


e-----------------------------------]
b----------------9-10---------------]
g---------7-9-10--------------------]
D--7-8-10---------------------------]
A-----------------------------------]
E-----------------------------------]
Tap to rate this tab
 
# A B C D E F G H I J K L M N O P Q R S T U V W X Y Z