Song name
# A B C D E F G H I J K L M N O P Q R S T U V W X Y Z

Wham - Last Christmas chords

Highlighted       Show chord diagrams
Last Christmas
Tabbed by: Robert V. Cala-or

Chords:

D      :xx0232
Dsus2  :xx0230
Bm     :224432
BmC    :224422
Em     :022000
A      :x02220
Asus   :x02200
A7     :x02020

Note:
Play this song with the right timing
because if not you will not understand
it.The Capital C in a Chord means Custom. 

Riff 1: Played together with Chorus
e|-0--0-----0-0-2--------0-0-2-------------------------|
B|-3----3-3-------3------------3--3-2-3-2-0------------|
G|-2-----------------2-2-------------------------------|
D|-0---------------------------------------------------|
A|-----------------------------------------------------|
E|-----------------------------------------------------|

e|-2-0--2-2-3-2-0--------------------------------------|
B|-0--------------3-2-3-2-3-2--------------------------|
G|-0--------------------------2------------------------|
D|-0---------------------------------------------------|
A|-----------------------------------------------------|
E|-----------------------------------------------------|

Riff 2: Played together with Verses
e|-0-0----5-2-0---0-0----7-2-0-------------------------|
B|-----3--------3-----3--------3-----------------------|
G|-----------------------------------------------------|
D|-----------------------------------------------------|
A|-----------------------------------------------------|
E|-----------------------------------------------------|

e|-2-----0--2-----0------------------------------------|
B|---3-3------3-3----3-2-3-2-3-2-----------------------|
G|-------------------------------2---------------------|
D|-----------------------------------------------------|
A|-----------------------------------------------------|
E|-----------------------------------------------------|


Chorus:

D-Dsus2-D-Dsus2
Last Christmas I gave you my heart
        Bm-BmC-Bm-BmC                
But the very next day you gave it away
Em
This year to save me from tears
      A-Asus-A-A7
I'll give it to someone special.

D-Dsus2-D-Dsus2
Last Christmas I gave you my heart
        Bm-BmC-Bm-BmC                
But the very next day you gave it away
Em
This year to save me from tears
      A-Asus-A-A7
I'll give it to someone special.

Verse I:

D-Dsus2-D-Dsus2
Once bitten and twice shy 
   Bm-BmC-Bm-BmC
I keep my distance but you still catch my eye 
Em
Tell me baby do you recognise me? 
      A-Asus-A-A7                    
Well it's been a year, it doesn't surprise me.

D-Dsus2-D-Dsus2
I wrapped it up and sent it
Bm-BmC-Bm-BmC 
With a note saying "I Love You" I meant it 
Em
Now I know what a fool I've been 
         A-Asus-A-A7
But if you kissed me now I know you'd fool me again. 

Chorus:

D-Dsus2-D-Dsus2
Last Christmas I gave you my heart
        Bm-BmC-Bm-BmC                
But the very next day you gave it away
Em
This year to save me from tears
      A-Asus-A-A7
I'll give it to someone special.

D-Dsus2-D-Dsus2
Last Christmas I gave you my heart
        Bm-BmC-Bm-BmC                
But the very next day you gave it away
Em
This year to save me from tears
      A-Asus-A-A7
I'll give it to someone special.

Same Chords with the first verse with the right timing.

Verse II:

A crowded room, friends with tired eyes 
I'm hiding from you and your soul of ice 
My God I thought you were someone to rely on 
Me? I guess I was a shoulder to cry on 
A face on a lover with a fire in his heart 
A man undercover but you tore me apart 
Oooh Oooh 
Now I've found a real love you'll never fool me again.


Chorus:

D-Dsus2-D-Dsus2
Last Christmas I gave you my heart
        Bm-BmC-Bm-BmC                
But the very next day you gave it away
Em
This year to save me from tears
      A-Asus-A-A7
I'll give it to someone special.

Outro:
e|-0--0-----0-0-2--------0-0-2-------------------------|
B|-3----3-3-------3------------3--3-2-3-2-0------------|
G|-2-----------------2-2-------------------------------|
D|-0---------------------------------------------------|
A|-----------------------------------------------------|
E|-----------------------------------------------------|


e|-2-0--2-2-3-2-0---------------0----2-----------------|
B|-0--------------3-2-3-2-3-2--------3-----------------|
G|-0--------------------------2------2-----------------|
D|-0---------------------------------0-----------------|
A|-----------------------------------------------------|
E|-----------------------------------------------------|
Tap to rate this tab
# A B C D E F G H I J K L M N O P Q R S T U V W X Y Z