Song name
# A B C D E F G H I J K L M N O P Q R S T U V W X Y Z

What Happens Next - Rat Bastard tab

Help us improve GuitareTab! Take a short survey!
------------------------------------------------------------------------------- 
                   RAT BASTARD - What Happens Next? 
------------------------------------------------------------------------------- 

By:Dan (Kalimondan@aol.com) 

Intro/Verse: 

e|---------------------------------------------------------------------------| 
B|---------------------------------------------------------------------------| 
G|---------------------------------------------------------------------------| 
D|-2-2-- 4-4-----------------------------------------------------------------| 
A|-2-2-- 2-2---5-5-5-5-5-5-5-------------------------------------------------| 
E|-0-0---------3-3-3-3-3-3-3-------------------------------------------------| 

Chorus: 
e|---------------------------------------------------------------------------| 
B|---------------------------------------------------------------------------| 
G|---------------------------------------------------------------------------| 
D|-7-7-7-7-7-7-7----1---1------7-7-7-7-7-7-7----1--2--5----------------------| 
A|-9-9-9-9-9-9-9----3---3------9-9-9-9-9-9-9----3--0--3----------------------| 
E|---------------------------------------------------------------------------| 

Slow Part: 
e|---------------------------------------------------------------------------| 
B|---------------------------------------------------------------------------| 
G|---------------------------------------------------------------------------| 
D|------------------------1--2--5--------------------------------------------| 
A|-2-2-2-2-2-2-2-2-2-2----3--0--3--------------------------------------------| 
E|-0-0-0-0-0-0-0-0-0-0-------------------------------------------------------| 

Solo: Is not exact but sounds close. ~=bend upwards 

e|----------12---------------------------~12--~12--~14-~14 ~15-~15-~17-------| 
B|--12--12-------15----13-12-13-12-------------------------------------------| 
G|-~14-~14-------------------------14-12-------------------------------------| 
D|---------------------------------------------------------------------------| 
A|---------------------------------------------------------------------------| 
E|---------------------------------------------------------------------------| 
That's All FOLKS!!! 

===============================================================================
Related for Rat Bastard tab