Guitaretab - guitar tabs
Song name
# A B C D E F G H I J K L M N O P Q R S T U V W X Y Z

What Happens Next - What Happens Next tab

------------------------------------------------------------------------------- 
                WHAT HAPPENS NEXT - What Happens Next 
------------------------------------------------------------------------------- 

By: Jon K (sonic_monkey@hotmail.com) 

This is a really cool song, and fairly simple. It's extremely short. 
e|---------------------------------------------------------------------------| 
B|---------------------------------------------------------------------------| 
G|---------------------------------------------------------------------------| 
D|---------------------------------------------------------------------------| 
A|---------------------------------------------------------------------------| 
E|---5*---5*-5*-5*--5*-5*-5*--5*-5*-5*---------------------------------------| 

* = harmonics 
e|---------------------------------------------------------------------------| 
B|---------------------------------------------------------------------------| 
G|---------------------------------------------------------------------------| 
D|---2-2---3-3-3---2---------------------------------------------------------| 
A|---2-2---3-3-3---2---------------------------------------------------------| 
E|---0-0---1-1-1---0---------------------------------------------------------| 

Thrashcore and circle pits! 
e|---------------------------------------------------------------------------| 
B|---------------------------------------------------------------------------| 
G|---------------------------------------------------------------------------| 
D|---------------------------------------------------------------------------| 
A|---------------------------------------------------------------------------| 
E|---5*---5*-5*-5*--5*-5*-5*--5*-5*-5*---------------------------------------| 
[ Tab from: http://www.guitaretab.com/w/what-happens-next/34156.html ]
e|---------------------------------------------------------------------------| 
B|---------------------------------------------------------------------------| 
G|---------------------------------------------------------------------------| 
D|---2-2---3-3-3---2---------------------------------------------------------| 
A|---2-2---3-3-3---2---------------------------------------------------------| 
E|---0-0---1-1-1---0---------------------------------------------------------| 

Long hair, short hair, it all fits! 
e|---------------------------------------------------------------------------| 
B|---------------------------------------------------------------------------| 
G|---7--6--4-----------------------------------------------------------------| 
D|---7--6--4--2-2-2-2--------------------------------------------------------| 
A|---5--4--2--2-2-2-2--------------------------------------------------------| 
E|------------0-0-0-0--------------------------------------------------------| 

What happens next? 
e|---------------------------------------------------------------------------| 
B|---------------------------------------------------------------------------| 
G|---7--6--4-----------------------------------------------------------------| 
D|---7--6--4--2-2-2-2--------------------------------------------------------| 
A|---5--4--2--2-2-2-2--------------------------------------------------------| 
E|------------0-0-0-0--------------------------------------------------------| 

Bandanas, flannel, skateboard decks! 
e|---------------------------------------------------------------------------| 
B|---------------------------------------------------------------------------| 
G|---7--6--4-----------------------------------------------------------------| 
D|---7--6--4--2-2-2-2--------------------------------------------------------| 
A|---5--4--2--2-2-2-2--------------------------------------------------------| 
E|------------0-0-0-0--------------------------------------------------------| 

What happens next? 
e|---------------------------------------------------------------------------| 
B|---------------------------------------------------------------------------| 
G|---------------------------------------------------------------------------| 
D|---3-3-3-------------------------------------------------------------------| 
A|---3-3-3-------------------------------------------------------------------| 
E|---1-1-1-------------------------------------------------------------------| 

End with this ^ 

There ya go! It's a great song by a great band, play along with the record to
get the timing right. Thrash on. 

===============================================================================
Related for What Happens Next tab