Song name
# A B C D E F G H I J K L M N O P Q R S T U V W X Y Z

What Happens Next - One And All tab

What Happens Next? - One And All
The Second Year (2001)
Tabbed by ruker (Varuker@gmail.com)
Standard Tuning EADGBE

--------------
Key:
--------------
.  palm mute
/  slide up
\  slide down
--------------

(0:00)
||----------------||
||*--------------*||
||----------------||
||------9-6-9-6---||
||*-5---7-4-7-4--*||
||--3-------------||


(0:03)              4x
||--------------------||
||*------------------*||
||--------------------||
||----------9-6-9-6---||
||*-5/8-5/8-7-4-7-4--*||
||--3/6-3/6-----------||


(0:09)
||------------------------------------------------------------------||
||------------------------------------------------------------------||
||------------------------------------------------------------------||
||------------------------------------------------------------------||
||-5-5-5-5-5-5-5-5-5-5-5-5-5-5-5-5-5-5-5-5-5-5-5-5-5-555-5-555-5-5--||
||-3-3-3-3-3-3-3-3-3-3-3-3-3-3-3-3-3-3-3-3-3-3-3-3-3-333-3-333-3-3--||
   . . . . . . . . . . . . . . . . . . . . . . . . . ... . ... . .

(0:16)
||---------------------------------------------------6--------------||
||---------------------------------------------------6-----9---9----||
||---------------------------------------------------7-----9---9----||
||---------6-6-6-6---------9-9-9-9---------6-6-6-6---------9---9----||
||-5-5-5-5-4-4-4-4-8-8-8-8-7-7-7-7-5-5-5-5-4-4-4-4-8---8-8-7---7----||
||-3-3-3-3---------6-6-6-6---------3-3-3-3---------6---6-6-7---7----||
   . . . . . . . . . . . . . . . . . . . . . . . . .   . .

(0:22)
||------------------------------------||
||*----------------------------------*||
||------------------------------------||
||----------6-6-6-6---------9-9-9-9---||
||*-5-5-5-5-4-4-4-4-8-8-8-8-7-7-7-7--*||
||--3-3-3-3---------6-6-6-6-----------||


(0:28)
||----------------||
||*--------------*||
||----------------||
||------9-6-9-6---||
||*-5---7-4-7-4--*||
||--3-------------||


(0:31)
||-------------------------------------------------------||
||-------------------------------------------------------||
||-------------------------------------------------------||
||---------9-6-9-6---------9-6-9-6--------9-6-9-6--------||
||-5/8-5/8-7-4-7-4-5/8-5/8-7-4-7-4-5------7-4-7-4-5------||
||-3/6-3/6---------3/6-3/6---------3--------------3------||
Tap to rate this tab
# A B C D E F G H I J K L M N O P Q R S T U V W X Y Z