Song name
# A B C D E F G H I J K L M N O P Q R S T U V W X Y Z

What Happens Next - Bobo tab

What Happens Next? - Bobo
The First Year (2000)
Tabbed by ruker (Varuker@gmail.com)
Standard Tuning EADGBE

--------------
Key:
--------------
.  palm mute
h  hammer-on
p  pull-off
/  slide up
\  slide down
--------------

(0:00)
||---------------------------------------------------------|
||---------------------------------------------------------|
||--------------------------------------------9-9-9-9-9-9--|
||--------------------------------------------9-9-9-9-9-9--|
||--------------------8---8-------------------7-7-7-7-7-7--|
||-6p5p0-5p4p0-0---0006---6---6p5p0-5p4p0-0----------------|
                   ...

|-----------------------------------------------------||
|-----------------------------------------------------||
|-----------------------------------------------------||
|-----------------------------------------------------||
|--------------------8---8----------------------------||
|-6p5p0-5p4p0-0---0006---6---6-5-0-5-4-0-0------------||
                  ...        . . . . . . 


(0:08)
||--------------------------------------------------------|
||--------------------------------------------------------|
||-----------------------------------------------9---9----|
||-----------------------------------------------9---9----|
||--------------------8---8----------------------7---7----|
||-6p5p0-5p4p0-0-0-0006---6---6p5p0-5p4p0-0-0-000---------|
                   ...                        ...

|-------------------------------------------------------||
|-------------------------------------------------------||
|------------------------------------------9--9--9--9---||
|------------------------------------------9--9--9--9---||
|--------------------8---8-----------------7--7--7--7---||
|-6p5p0-5p4p0-0-0-0006---6---6p5p0-5p4p0-0--------------||
                  ...


(0:15)
||-----------------------------------------------------121212\---|
||---------------------------------------------------------------|
||---------------------------------------------------------------|
||-5-5-5-5-4-4-4-4-----------------5-5-5-5-4-4-4-4-9-9-----------|
||-3-3-3-3-2-2-2-2-5-5-5-5-5-5-5-5-3-3-3-3-2-2-2-2-7-7-----------|
||-----------------3-3-3-3-3-3-3-3-------------------------------|
                   . . . . . . . .

|--------------------------------------------------------------||
|--------------------------------------------------------------||
|-------------------------------------------------9--9--9--9---||
|-5-5-5-5-4-4-4-4-----------------5-5-5-5-4-4-4-4-9--9--9--9---||
|-3-3-3-3-2-2-2-2-5-5-5-5-5-5-5-5-3-3-3-3-2-2-2-2-7--7--7--7---||
|-----------------3-3-3-3-3-3-3-3------------------------------||
                  . . . . . . . .


(0:23)
||--------------------------------------------------------|
||--------------------------------------------------------|
||-----------------------------------------------9---9----|
||-----------------------------------------------9---9----|
||--------------------8---8----------------------7---7----|
||-6p5p0-5p4p0-0-0-0006---6---6p5p0-5p4p0-0-0-000---------|
                   ...                        ...

|-------------------------------------------------------||
|-------------------------------------------------------||
|------------------------------------------9--9--9--9---||
|------------------------------------------9--9--9--9---||
|--------------------8---8-----------------7--7--7--7---||
|-6p5p0-5p4p0-0-0-0006---6---6p5p0-5p4p0-0--------------||
                  ...


(0:31)
||-----------------------------------------------------121212\---|
||---------------------------------------------------------------|
||---------------------------------------------------------------|
||-5-5-5-5-4-4-4-4-----------------5-5-5-5-4-4-4-4-9-9-----------|
||-3-3-3-3-2-2-2-2-5-5-5-5-5-5-5-5-3-3-3-3-2-2-2-2-7-7-----------|
||-----------------3-3-3-3-3-3-3-3-------------------------------|
                   . . . . . . . .

|--------------------------------------------------------------||
|--------------------------------------------------------------||
|-------------------------------------------------9--9--9--9---||
|-5-5-5-5-4-4-4-4-----------------5-5-5-5-4-4-4-4-9--9--9--9---||
|-3-3-3-3-2-2-2-2-5-5-5-5-5-5-5-5-3-3-3-3-2-2-2-2-7--7--7--7---||
|-----------------3-3-3-3-3-3-3-3------------------------------||
                  . . . . . . . .


(0:45)
||-----------------------------------------------------121212\---|
||---------------------------------------------------------------|
||---------------------------------------------------------------|
||-5-5-5-5-4-4-4-4-----------------5-5-5-5-4-4-4-4-9-9-----------|
||-3-3-3-3-2-2-2-2-5-5-5-5-5-5-5-5-3-3-3-3-2-2-2-2-7-7-----------|
||-----------------3-3-3-3-3-3-3-3-------------------------------|
                   . . . . . . . .

|--------------------------------------------------------------------||
|--------------------------------------------------------------------||
|-------------------------------------------------9--9--9--9--9--9---||
|-5-5-5-5-4-4-4-4-----------------5-5-5-5-4-4-4-4-9--9--9--9--9--9---||
|-3-3-3-3-2-2-2-2-5-5-5-5-5-5-5-5-3-3-3-3-2-2-2-2-7--7--7--7--7--7---||
|-----------------3-3-3-3-3-3-3-3------------------------------------||
                  . . . . . . . .
Tap to rate this tab
# A B C D E F G H I J K L M N O P Q R S T U V W X Y Z