Song name
# A B C D E F G H I J K L M N O P Q R S T U V W X Y Z

What Happens Next - Apathy Our Destiny tab

What Happens Next? - Apathy Our Destiny
The First Year (2000)
Tabbed by ruker (Varuker@gmail.com)
Standard Tuning EADGBE

--------------
Key:
--------------
.  palm mute
h  hammer-on
p  pull-off
/  slide up
\  slide down
--------------

(0:06)
||----------------------------||
||----------------------------||
||----------------------------||
||------4----8----------------||
||-6----2----6----------------||
||-4--------------------------||


(0:10)                 5x
||-----------------------||
||*---------------------*||
||----7------------------||
||--0---0----6-----------||
||*-------4-------------*||
||-----------------------||


(0:33)                         3x
||-------------------------------||
||*-----------------------------*||
||----7--------------------------||
||--0---0----6-----6-----6-------||
||*-------4-----4-----4-----4---*||
||-------------------------------||


(0:47)
||--------------------------------------------||
||--------------------------------------------||
||---7----------------------------------7-7-7-||
||-0---0----6--6-6-6-6------6-6-6-6-6-6-7-7-7-||
||-------4-----4-4-4-4------4-4-4-4-4-4-5-5-5-||
||--------------------------------------------||
               . . .

(0:53)             4x
||-------------------||
||*-----------------*||
||-----------7-7-7---||
||--6--------7-7-7---||
||*-4--------5-5-5--*||
||-------------------||


(1:10)                                          4x
||------------------------------------------------||
||*----------------------------------------------*||
||----------------------------------------7-7-7---||
||--6----6-6-6-6----6-6-6-6----6-6-6-6----7-7-7---||
||*-4----4-4-4-4----4-4-4-4----4-4-4-4----5-5-5--*||
||------------------------------------------------||


(1:27)                                              4x
||----------------------------------------------------||
||*--------------------------------------------------*||
||--------------------------------------------7-7-7---||
||--6-6-6-6-6-6-6-6-6-6-6-6-6-6-6-6-6-6-6-6-6-7-7-7---||
||*-4-4-4-4-4-4-4-4-4-4-4-4-4-4-4-4-4-4-4-4-4-5-5-5--*||
||----------------------------------------------------||


(1:43)                                     4x
||-------------------------------------------||
||*-----------------------------------------*||
||-----------------------------------7-7-7---||
||--6----6-6-6-6----6-6-6-6----6-6-6-7-7-7---||
||*-4----4-4-4-4----4-4-4-4----4-4-4-5-5-5--*||
||-------------------------------------------||


(2:00)
 Left Lead
||-------------------------------------------||
||*-----------------------------------------*||
||--6----7/9\7-6----7/9\7-6----7/9\7-6---4---||
||-------------------------------------------||
||*-4----5/7\5-4----5/7\5-4----5/7\5-4---2--*||
||-------------------------------------------||
|                                             |
|Rhythm                                       |
||-------------------------------------------||
||*-----------------------------------------*||
||-----------------------------------7-7-7---||
||--6----6-6-6-6----6-6-6-6----6-6-6-7-7-7---||
||*-4----4-4-4-4----4-4-4-4----4-4-4-5-5-5--*||
||-------------------------------------------||


(2:08)
 Left Lead
||-------------------------------------------||
||*-----------------------------------------*||
||--6----7/9\7-6----7/9\7-6----7/9\7-6---4---||
||-------------------------------------------||
||*-4----5/7\5-4----5/7\5-4----5/7\5-4---2--*||
||-------------------------------------------||
|                                             |
|Right Lead                                   |
||-------------------------------------------||
||*-----------------------------------------*||
||-------------------------------------------||
||--6----6h7p6------6h7p6------6h7p6-9---7---||
||*------------9----------7-----------------*||
||-------------------------------------------||
|                                             |
|Rhythm                                       |
||-------------------------------------------||
||*-----------------------------------------*||
||-----------------------------------7-7-7---||
||--6----6-6-6-6----6-6-6-6----6-6-6-7-7-7---||
||*-4----4-4-4-4----4-4-4-4----4-4-4-5-5-5--*||
||-------------------------------------------||
Tap to rate this tab
# A B C D E F G H I J K L M N O P Q R S T U V W X Y Z