Song name
# A B C D E F G H I J K L M N O P Q R S T U V W X Y Z

What Happens Next - Infinite Cycle tab

What Happens Next? - Infinite Cycle
The First Year (2000)
Tabbed by ruker (Varuker@gmail.com)
Standard Tuning EADGBE

--------------
Key:
--------------
.  palm mute
/  slide up
\  slide down
--------------

(0:00)                         4x
||-------------------------------||
||*-----------------------------*||
||-------------------------------||
||--------9-\--------------------||
||*-7--10-7-\-------------------*||
||--5--8-------------------------||


(0:09)                         4x
||-------------------------------||
||*-----------------------------*||
||-------------------------------||
||--------9----------------------||
||*-7--10-7----7-7-7-7-10101010-*||
||--5--8-------5-5-5-5-8-8-8-8---||


(0:16)                              4x
||------------------------------------||
||*----------------------------------*||
||--9-9-9-9-9-9-9-9-1212121211111111--||
||--9-9-9-9-9-9-9-9-1212121211111111--||
||*-7-7-7-7-7-7-7-7-101010109-9-9-9--*||
||------------------------------------||


(0:24)                         4x
||-------------------------------||
||*-----------------------------*||
||-------------------------------||
||--------9----------------------||
||*-7--10-7----7-7-7-7-10101010-*||
||--5--8-------5-5-5-5-8-8-8-8---||


(0:31)                              4x
||------------------------------------||
||*----------------------------------*||
||--9-9-9-9-9-9-9-9-1212121211111111--||
||--9-9-9-9-9-9-9-9-1212121211111111--||
||*-7-7-7-7-7-7-7-7-101010109-9-9-9--*||
||------------------------------------||


(0:39)
||----------------------------------||
||-9-------8-------3-------7--------||
||-9-------9-------4-------7--------||
||-9-------10------5-------7--------||
||-7-------10------5-------5--------||
||---------8-------3----------------||


(0:43)
 Lead
||----------------------------------||
||----------------------------------||
||-9----11-12--14--12--11--9---7----||
||----------------------------------||
||-7----9--10--12--10--9---7---5----||
||----------------------------------||
|                                    |
|Rhythm                              |
||----------------------------------||
||-9-------8-------3-------7--------||
||-9-------9-------4-------7--------||
||-9-------10------5-------7--------||
||-7-------10------5-------5--------||
||---------8-------3----------------||


(0:48)
||-------------------------------||
||*-----------------------------*||
||-------------------------------||
||--------9----------------------||
||*-7--10-7---------------------*||
||--5--8-------------------------||


(0:52)                         4x
||-------------------------------|-------------||
||*-----------------------------*|-------------||
||-------------------------------|-------------||
||--------9----------------------|-------9-\---||
||*-7--10-7----7-7-7-7-10101010-*|-7--10-7-\---||
||--5--8-------5-5-5-5-8-8-8-8---|-5--8--------||
Tap to rate this tab
 
# A B C D E F G H I J K L M N O P Q R S T U V W X Y Z