Song name
# A B C D E F G H I J K L M N O P Q R S T U V W X Y Z

What Happens Next - Words Ring Empty tab

What Happens Next? - Words Ring Empty
The First Year (2000)
Tabbed by ruker (Varuker@gmail.com)
Standard Tuning EADGBE

--------------
Key:
--------------
.  palm mute
~  vibrato
ph pinch harmonic
--------------

(0:00)
||---------------------------------------------------------||
||---------------------------------------------------------||
||---------------------------------------------------------||
||------------------------------------7-------5-----4------||
||-7777\6666\5555\4444\3333\2222\1111-5-------3-6-6-2-5-5--||
||----------------------------------------------4-4---3-3--||


(0:04)
||--------------------------------------------------------------||
||--------------------------------------------------------------||
||--------------------------------------------------------------||
||-777777775-----4-----777777775-----4-----777777775-----4------||
||-555555553-6-6-2-5-5-555555553-6-6-2-5-5-555555553-6-6-2-5-5--||
||-----------4-4---3-3-----------4-4---3-3-----------4-4---3-3--||


(0:10)
||----------------------------------------------||
||----------------------------------------------||
||----------------------------------------------||
||----------------------------------------------||
||-----7----------7----------7----------7-------||
||-55555------55555------55555------55555-------||


(0:17)
||------------------------------||
||------------------------------||
||------------------------------||
||------------------------------||
||-----7-----8--10-7-----8--10--||
||-55555-----6--8--5-----6--8---||


(0:19)
||-------------------------------------------------------------||
||-------------------------------------------------------------||
||-------------------------------------------------------------||
||-------------------------------------------------------------||
||-7-7-7-7-8--10--7-7-7-7-8--10--7-7-7-7-8--10--7-7-7-7-8--10--||
||-5-5-5-5-6--8---5-5-5-5-6--8---5-5-5-5-6--8---5-5-5-5-6--8---||


(0:22)
||---------------------------------------------------------||
||---------------------------------------------------------||
||---------------------------------------------------------||
||-7-----5-------777777775-----4-----777777775-----4-------||
||-5-----3---6---555555553-6-6-2-5-5-555555553-----2-------||
||-----------4-------------4-4---3-3-----------4~4---3~3---||
                                               ph    ph
Tap to rate this tab
 
# A B C D E F G H I J K L M N O P Q R S T U V W X Y Z