Song name
# A B C D E F G H I J K L M N O P Q R S T U V W X Y Z

What Happens Next - I Thought You Were My Friend tab

What Happens Next? - I Thought You Were My Friend
The Second Year (2001)
Tabbed by ruker (Varuker@gmail.com)
Standard Tuning EADGBE

(0:03)
||------------------------------------------------------------------||
||------------------------------------------------------------------||
||------------------------------------------------------------------||
||-10101010101010106-6-6-6-9-9-9-9-10101010101010106-6-6-6-9-9-9-9--||
||-8-8-8-8-8-8-8-8-4-4-4-4-7-7-7-7-8-8-8-8-8-8-8-8-4-4-4-4-7-7-7-7--||
||------------------------------------------------------------------||


(0:06)
||----------------------------------||
||----------------------------------||
||----------------------------------||
||----------------------------------||
||-6-6-6-6-8-8-8-8-6-6-6-6-8---8----||
||-4-4-4-4-6-6-6-6-4-4-4-4-6---6----||


(0:07)
||------------------------------------------------------------||
||------------------------------------------------------------||
||------------------------------------------------------------||
||-10101010101010106-6-6-6-9-9-9-9-10----------6------9-------||
||-8-8-8-8-8-8-8-8-4-4-4-4-7-7-7-7-8-----------4------7-------||
||------------------------------------------------------------||
Tap to rate this tab
# A B C D E F G H I J K L M N O P Q R S T U V W X Y Z